"yes"; ?> insertsongandartist - guitar chords, guitar tabs and lyrics - chordie

Martha My Dear

Beatles

 CC5C6CC5C6EmEm9Dsus4DD5Dsus4
E|-0---3-------5---0-------3---5--|-0---2---3---3---3---2----5--3--|
B|-1---1-------1---1-------1---1--|-0-------3---3---3---3----3--3--|
G|-0---0-------0---0-------0---0--|-0-------2---2---2---2----2--2--|
D|-2---------------2--------------|-2------------------------------|
A|-3---------------3--------------|-2------------------------------|
E|--------------------------------|--------------------------------|

+ . + . + . + . + . + . + . + .
please... be good to me Martha, my love
 DG5F
E|-2-------------------3---2---0--|-3-------3-------1---1---1---1--|
B|-3------------------------------|-3----------3----1---1---1---1--|
G|-2------------------------------|-----0---------0-2---2---2---2--|
D|-0------------------------------|-----------------3---3---3---3--|
A|--------------------------------|--------------------------------|
E|--------------------------------|-3------------------------------|

+ . + . + . + . + . + . + . + .
don't forget me Martha, my
 G7FF(add9G7FF(add9
E|-1---1---0-------1-------3--------|-1---1---0-------1-------3--------|
B|-0---0------3--0----1-------1-----|-0---0------3--0----1-------1-----|
G|-0---0-----------------2-------2--|-0---0-----------------2-------2--|
D|-0---0-----------3-------3--------|-0---0-----------3-------3--------|
A|-2---2----------------------------|-2---2----------------------------|
E|-3---3----------------------------|-3---3----------------------------|

+ . + . + . + . + . + . + . + .
dear ... Hold your head up ....
                                   -------

G5 | Bm
|
E|-3---3---1--0------------0--1----|---this part I just strum the---|
B|-3---3---------3---0--3----------|---chords as shown below--------|
G|-2---2---------------------------|--------------------------------|
D|-0-------------------------------|--------------------------------|
A|-2-------------------------------|--------------------------------|
E|-3-------------------------------|--------------------------------|

+ . + . + . + . + . + . + . + .
 BmEmDD/F#D/GD/G#
 Hold your head up, you silly girl, look what you've done  
 AEm
 When you find yourself in the thick of it,
 AEmF#mBm
 Help yourself to a bit of what is all around you,
 BmEmEm7EmCCsus4C
 You silly girl     
(middle eight - staccato eighth feel for the chording)
 BmEm
 Take a good look around you
 BmEmA
 Take a good look around to see, that you and me
 GBmEmEm7EmCCsus4C
 Were meant to be with each other, you silly girl     
Hold your head up, you silly girl, see what you've done
When you find yourself in the thick of it,
Help yourself to a bit of what is all around you,
You silly girl
Martha, my dear, you have always been my inspiration
Please, be good to me,
Martha, my dear, don't forget me,
Martha, my love
~~~~~~~~~~~~~~~~~~~~~~~~~~~~~~~~~~~~~~~~~~~~~~~~~~~~~~~~~~~
~ transcribed by Brad Mahugh ~
~ ~
~~~~~~~~~~~~~~~~~~~~~~~~~~~~~~~~~~~~~~~~~~~~~~~~~~~~~~~~~~~
Brad Mahugh
e-mail:bmahugh@ix.netcom.com