Chordie logo

content loaded from cache

Day Tripper  Beatles

# <01GUHT8O0HG099DKK9@asu.edu>; Mon, 8 Feb 1993 22:01:22 MST# id 2749; Mon, 08 Feb 93 22:03:49 MST#From: Paul Zimmerman #To: jamesb@animal-farm.nevada.edu#Content-Transfer-Encoding: 7BIT#DAY TRIPPERriff 1: riff 2:
|-----------------------------        |----------------------------
|-----------------------------        |----------------------------
|-----------------------------        |-----------2-0-----4----0-2-
|-----------2---0---4---0-2---        |---------2-------2----2-----
|---------2-------2---2-------        |-0---3-4--------------------
|-0---3-4---------------------        |----------------------------

play riff 1 2x, then riff 1 once, then riff 2 once
  [E7]Got a good reason, for taking the easy way out
[A7]Got a good reason, [E7]for taking the easy way out
She was a [F#]day____ tripper, one way ticket yeah
It took me [A7]so____ [G#7]long to find [C#]out, and I found [B]out
She's a big teaser, she took me half the way there
She's a big teaser, she took me half the way there
She's a day tripper, one way ticket, yeah
It took me so long to find out, and I found out
Tried to please her, but she only played one night stands
Tried to please her, but she only played one night stands
She was a day tripper, Sunday driver, yeah
It took me so long to find out, and I found out
Peace, love, and soul,
Paul Zimmerman
---

I converted this from the standard music notation of one of those jumbo Beatles
books....
e-------------------------------
b--------------------------------
g--------------------------------
d-----------2--0----4-----0--2----
a---------2-------2----2----------
e--0--3-4-------------------------

It starts off.....
[E7]"Got a good reason..."
[A7]"Got a good reason..."
[E7]"For taking..."
[F#]"Day_____ Tripper...."
[A7]"so_______[G#7]long to find out[C#], and I found o[B]ut
the bridge goes like this....
[B7]   [E/B]    [F#m/B]      [B6]   [A/B]    [B7]   [B]  the song ends with....
[E7]"Day Tripper...etc"

Important: The song above is NOT stored on the Chordie server. The original song is hosted at flarere.free.fr. Chordie works as a search engine and provides on-the-fly formatting. Chordie does not index songs against artists/composers will. To remove this song please click here.

A/B A7 B B6 B7 C# E/B E7 F# F#m/B G#7
variations - click chord images

Transpose chords

Tuning

Rating click stars to rate

Layout
Accuracy

SHARE PAGE  



You need to log in to post comments