Guitar Tabs, Chords and Lyrics


gold to me  Ben Harper

you look like gold[A]
you make me want to say
with all the joy you bring
you look like gold
Like the rays down from the sun
when a new day has just begun
you look like gold
I've been [D#]fooled before
[G]but now I [F]know
[G]I've made [D#]the mistake in the past
[G]but now I [F]know the difference
[G]from gold and [A]brass
not the kind of gold that you wear
but the kind that can feel my care
you look like gold
some shine when the day is new
but fade when the day is through
but you look like gold
I've been wrong before
but now I know
I've made mistakes in the past
but now I know the difference
from gold and brass
solo:
(You really need to play on an high action guitar with heavy strings
in order to avoid pull-of buzzes with the slide...)
E:----------------------------------------------------------------|
C:----------------------------------------------------------------|
G:----------------------------------------------------------------|
C:-7--7-7-7---0--0----0--0--3--7-/-5--3p0--7s5--3p0---3-0---------|
G:--------------------------------------------------------3-0-5---|
C:----------------------------------------------------------------|
E:----------------------------------------------------------------|
C:----------------------------------------------------------------|
G:----------------------------------------------------------------|
C:-7s5-3--0--0-3-0-3----3--3-3--0-0--3/5/3-0--5-5-5/6-3-0-----/3--|
G:-------------------------------------------------------/3-5-----|
C:----------------------------------------------------------------|
E:----------------------------------------------------------------|
C:----------------------------------------------------------------|
G:----------------------------------------------------------------|
C:-------------5--3--5-----0--/3--5-5----0--0-0--3--3-3-3-3--/7-5-|
G:-3--3-3--/5-----------------------------------------------------|
C:----------------------------------------------------------------|
E:----------------------------------------------------------------|
C:---------------------------------------0h2-----0h2-----0h2------|
G:------0--0h2-0h2-0h2-0h2-0h2/3--2p0h2------0h2-----0h2-----0h2--|
C:-3/5------------------------------------------------------------|
G:----------------------------------------------------------------|
C:----------------------------------------------------------------|
E:----------------------------------------------------------------|
C:-0h2------------------------------------------------------------|
G:-----0h2-2-2-2-0-2/3------(the solo is more or------------------|
C:----------------------------less the same as the----------------|
G:----------------------------beginning after...)-----------------|
C:----------------------------------------------------------------|

you look like gold to me
and I'm down on bending knees
you look like gold
and I just want you to know
to me you mean so much more
than all the gold
you look like gold
finising solo
E:----------------------------------------------------------------|
C:-(I don't have any-----------------------------3/0-0------------|
G:--ideas here, all-----3-3-3-3-3-3/5-0----3-3-3------------------|
C:--I know is that he---------------------------------------------|
G:--finishes with :-----------------------------------------------|
C:----------------------------------------------------------------|

And here's my poor attempt to transcribe the Bass part, which is
pretty much the same as Otis Redding's 'My Girl' (Cool Song!)
(for the verses only):
G:----------------------------------------0---0----------0---0------|
D:----------0---0----------0---0------0/2---2--------0/2---2-------°|
A:------0/2---2--------0/2---2---3--------------3------------------°|
E:-3--------------3-------------------------------------------------|


Important: The song above is NOT stored on the Chordie server. The original song is hosted at flarere.free.fr. Chordie works as a search engine and provides on-the-fly formatting. Chordie does not index songs against artists/composers will. To remove this song please click here.

Text color:
Chord color:
Chord grids: 
Font size:    
Page size: 

A D# F G
variations - click chord images

Login - add to songbook

Transpose chords

Tuning

Rating click stars to rate

Layout
Accuracy

SHARE PAGE  




You need to log in to post comments