Jah Work

Ben Harper

Ben Harper - JAH WORK (accordage : G-G-E-G-A-D)


 G1
|---5-7-|-8-7-5-7-5-3-|-5--5-3-0-3-----|-0-----0-------------|
|---5-5-|-5-5-5-5-3-3-|-3----------1---|-0--------0----------|
|-------|-------------|----------------|-0-------------------|
|-------|-------------|----------------|-0-----------8-------|
|-------|-------------|----------------|-0-------------------|
|-------|-------------|----------------|---------------------|

|
 G2
|-------|-------------|----0-----------|-0-------------------|
|-------|-------------|------3-1-3-----|-0-------------------|
|-------|-------------|--------------0-|-0-------------------|
|-------|-------------|------------3---|-0-------------------|
|-------|-------------|--0-------------|-0-------------------|
|-------|-------------|----------------|-0-------------------|

 G1
|-----------|-----0--------|----------------|---5---0----5------------|
|-----------|-------0------|----------------|---5-----0--5------------|
|---0-------|--------------|----------------|---0-3------3------------|
|-----------|---------8----|----------------|---------------8---------|
|-----------|--------------|----------------|-------------------------|
|-----------|--------------|----------------|-------------------------|

|
 G2
|-----------|-----0--------|------------------|---------------------------|
|-----------|-------0------|------------------|---------------------------|
|-----2-3-5-|-2-3-------0--|-3-3-5-3----------|---------------------------|
|-----3-5-7-|-3-5-----8----|-5-5-7-5--5-3-----|-3h5p3h5p3h5p3h5p3h5p3h5p3-|
|-----------|--------------|--------------3-2-|---------------------------|
|-----------|--------------|------------------|---------------------------|

 G1
|-----5--5--|--5---0---5---|---5----5----|---5--0---5---|---5--5----|---5-0--5---|
|-----5--5--|--5-----0-5---|---5----5----|---5----0-5---|---5--3----|---5--0-3---|
|---0-3--3--|--0-3-----3---|-0-3----3----|-3-0------3---|-0-3--3----|-3-0----3---|
|-----------|------------8-|-------------|------------8-|-----------|----------8-|
|-----------|--------------|-------------|--------------|-----------|------------|
|-----------|--------------|-------------|--------------|-----------|------------|

|
 G2
|-------3---|-3------------|---7-8-7-5-7-|-5------------|----0----0-|-0----------|
|-------1---|-1------------|-------------|--------------|------1-3--|-0----------|
|-----0-0---|-0------------|-------------|--------------|---0-------|-0----------|
|-----------|--------------|-------------|--------------|-----------|------------|
|-----------|--------------|-------------|--------------|-----------|------------|
|-----------|--------------|-------------|--------------|-----------|------------|

 G1
|-----5--5--||----5---5--|--1--1---1--|---8----8---|---7----7-----||
|-----5--5--||----5---5--|--1--1---1--|---8----8---|---8----8-----||
|---0-3--3--||.---3---3--|--3--3---3--|---10---10--|---10---10---.||
|-----------||.----------|------------|---8----8---|-------------.||
|-----------||-----------|------------|------------|--------------||
|-----------||-----------|------------|------------|--------------||

|
 G2
|-----------||-----------|---------1---|-----------|-----7--------||
|-----------||-----------|-------------|-----------|-----8--5-----||
|-----------||.----------|---0-2-0-0---|--3-3------|-5-7------5--.||
|-----------||.----------|---1-3-1-----|--5-5-5--0-|-7-8---------.||
|-----------||-----------|-------------|-----------|--------------||
|-----------||-----------|-------------|-----------|--------------||

G1 (refrain)
||-----5-----5---|----5-----5---|---5-----5--|---5-----5-----|
||-----5-----5---|----5-----5---|---6-----6--|---6-----6-----|
||.----3-----3---|----3-----3---|---3-----3--|---3-----3-----|
||.--------------|--------------|------------|---------------|
||---------------|--------------|------------|---------------|
||---------------|--------------|------------|---------------|

|
 G2
||---------------|---0----------|----0-------|-0-----0-------|
||--0----0---1---|-3---3-1-0----|------6-----|---6-----6-----|
||.-0------------|-----------0--|--------3---|-----3-----3---|
||.-0----------0-|--------------|------------|---------------|
||---------------|--------------|-5----------|---------------|
||---------------|--------------|------------|---------------|

 G1
|-----7-----7----|----7-----7---|---5-----5--|---5-----5-----|
|-----8-----8----|----8-----8---|---5-----5--|---5-----5-----|
|-----5-----5----|----5-----5---|---3-----3--|---3-----3-----|
|----------------|--------------|------------|---------------|
|----------------|--------------|------------|---------------|
|----------------|--------------|------------|---------------|

|
 G2
|----------------|---------0----|-0----------|---0-----------||
|----------------|----------0---|-0--0--1----|-3---3-1-0-----||
|------0--0--0---|-0-0-0-----0--|-0----------|-----------0--.||
|--3---0--0--0---|------------0-|-0--------0-|--------------.||
|----------------|-0-0-0--------|-0----------|---------------||
|----------------|--------------|------------|---------------||























G2
variations - click chord images
Transpose chords:
Tuning:
Cool service:
View: Size:
A  A  A
Rating:
Layout:
  • Currently 2.8/5 Stars.
  • 1
  • 2
  • 3
  • 4
  • 5
 
Accuracy:
  • Currently 3.1/5 Stars.
  • 1
  • 2
  • 3
  • 4
  • 5
 
click stars to rate
Chordie recommends:
Learn to play guitar with video-based, online guitar lessons at JamPlay.com
Songbook:
Login to add this song to your songbook
Support the artist
Preview/buy this song
MSN Music
Why this non-profit ad?

 
login to add comments/video/corrections