Have A Cigar

Pink Floyd

 ---------------------------------------------------------
e:------------|----------------------------------------------|
B:------------|----------------------------------------------|
G:--X-X-X-X-\-|----------------------------------------------|
D:--X-X-X-X-\-|---2--------2-2---2-------2--------2-2---2----|
A:--X-X-X-X-\-|---2--------2-2---2-------2--------2-2---2----|
E:--X-X-X-7-\-|-0---0-3--0-----3---3~--0---0-3--0-----3---3~-|

First guitar plays this riff throughout the intro
e:---------------------------------------------------------|
B:---------------------------------------------------------|
G:---------------------------------------------------------|
D:---2---------2---2-----2---------2---------2--2-----2----|
A:---2---------2---2-----2---------2---------2--2-----2----|
E:-0---0-3--0---------3----3~---0-----0--3-0-------3----3~-|

| |
| Second guitar enters |
e:---------------------------------------------------------|
B:---------------------------------------------------------|
G:---------------------------------------------------------|
D:----------2--0-------------------------7b(9)-~~----------|
A:----------------2--1--0----------------------------------|
E:-------------------------3-------------------------------|

Keyboard plays along with this
    [Em]     [F
e:---------------------------------------------12-12--12-\-|
B:---------------------------------------------12-12--12---|
G:--0----2----3----5------5----3----2----0-----------------|
D:--2----4----5----5------5----5----4----2-----------------|
A:--2----4----5----3------3----5----4----2-----------------|
E:---------------------------------------------------------|

   [Em]      [F
e:---------------------------------------------------------|
B:---------------------------------------------------------|
G:--0----2----3---5-------7--------------------------------|
D:--2----4----5---5-------7-----5---4--2--0----------0-1-2-|
A:--2----4----5---3-------5------------------3---2-3-------|
E:---------------------------------------------------------|
e:--12b(14)~~----------------|
B:---------------------------|
G:---------------------------|
D:---------------------------|
A:---------------------------|
E:---------------------------|

- Verse:
The rythm guitar for the verse uses the same riff from
the intro with double barre chords strummings in the middle:
(main riff)
Come in here dear boy have a cigar you're gonna go far
You're gonna fly high
 CD
  You're never gonna die, you're gonna make it if you try
(main riff)
They're gonna love you.
- Chorus:
And did we tell you the name of the game, boy,
 CDEC
e:---------------------------------------------------------|
B:---------------------------------------------------------|
G:------------5-----------7------------9-----5-------------|
D:------------5-----------7------------9-----5-------------|
A:------------3-----------5------------7-----3-------------|
E:---------------------------------------------------------|

We call it riding the gravy train. Yeah...
 DGCG
e:---------------------------------------------------------|
B:---------------------------------------------------------|
G:------------7------------------------5-------------------|
D:------------7-----------5------------5------5------------|
A:------------5-----------5------------3------5------------|
E:------------------------3-------------------3------------|

    [G]   [F
e:---------------------------------------------------------|
B:---------------------------------------------------------|
G:-----------------0---------------------------------------|
D:--5--4----4--3---2---------------------------------------|
A:--5--4----4--3---2---------------------------------------|
E:--3--2----2--1---0---------------------------------------|

- Lead Fills:
The following are fills played on the second guitar
with the words shown as markers for where they come in:
after "...you're gonna go far"
e:---------------------------------------------------------|
B:---------------------------------------------------------|
G:---------------------------------------------------------|
D:-------------------------------7b(9)====(9)b(8)b(9)------|
A:---------------------------------------------------------|
E:---------------------------------------------------------|

after "...they're gonna love you"
e:-----------------------------------11b(12)-\-(11)--------|
B:-----------------------------------11b(12)-\-(11)--------|
G:---------------------------------------------------------|
D:------------------------------------------grad.----------|
A:------------------------------------------release--------|
E:---------------------------------------------------------|

after "...I mean that most sincerely"
e:--------------------------------------10-/-12---10~------|
B:--------------------------------------10-/-12---10~------|
G:---------------------------------------------------------|
D:---------------------------------------------------------|
A:---------------------------------------------------------|
E:---------------------------------------------------------|

after "...which one's Pink?"
e:---------------------------------10b(12)==12~~-----------|
B:---------------------------------------------------------|
G:---------------------------------------------------------|
D:---------------------------------------------------------|
A:---------------------------------------------------------|
E:---------------------------------------------------------|

before "We're just..."
e:--12h10------10b(12)-------------------------------------|
B:---------12----------------------------------------------|
G:---------------------------------------------------------|
D:---------------------------------------------------------|
A:---------------------------------------------------------|
E:---------------------------------------------------------|

after "We're just knocked out"
e:---------------------------------------------------------|
B:---------------------------------------------------------|
G:---------------------------------------------------------|
D:----------------------------------(9)b7--\-5-------------|
A:---------------------------------------------------------|
E:---------------------------------------------------------|

after "...hot about the sound"
e:---------------------------------------------------------|
B:---------------------------------------------------------|
G:---------------------------------------------------------|
D:--------------------------------7b(9)=(9)b7-\-5---7------|
A:---------------------------------------------------------|
E:---------------------------------------------------------|

after "...we can hardly count"
e:-----------------------------------11b(12)-\-(11)--------|
B:-----------------------------------11b(12)-\-(11)--------|
G:---------------------------------------------------------|
D:------------------------------------------grad.----------|
A:------------------------------------------release--------|
E:---------------------------------------------------------|

after "...else is just green"
e:---------------------------------10-/-12---10------------|
B:---------------------------------10-/-12---10------------|
G:---------------------------------------------------------|
D:---------------------------------------------------------|
A:---------------------------------------------------------|
E:---------------------------------------------------------|

after "..together as a team"
e:---------------------------------------------------------|
B:---------------------------------------------------------|
G:--------------------------------(9)b7-\--5---------------|
D:---------------------------------------------------------|
A:---------------------------------------------------------|
E:---------------------------------------------------------|

Solo:
e:-10b(12)--10---------------------------------------------|
B:-------------10b(12)b10---8b(10)=(10)b8------------------|
G:---------------------------------------------------------|
D:---------------------------------------------------------|
A:---------------------------------------------------------|
E:---------------------------------------------------------|
e:----------12h15h12--15b(17)--17b(19)=(19)==(19)--15b(16)-|
B:-15b(17)-------------------------------------------------|
G:---------------------------------------------------------|
D:---------------------------------------------------------|
A:---------------------------------------------------------|
E:---------------------------------------------------------|
e:--15-15h12-----------------------------------------------|
B:------------15--15--15b(17)------------------------------|
G:-----------------------------14b(15)==(15)b14-\--7--9----|
D:---------------------------------------------------------|
A:---------------------------------------------------------|
E:---------------------------------------------------------|

It goes on with similar scales which is very monotonous
and frustrating to tab all of, so listen to the album
and ad-lib, I give up on it!
 --
   \   __   /   Had a good alien anal     \   __   /  crimson@gily.com
 - _.//\\._ -      probing lately?      - _.//\\._ - jeremyj@freenet.fsu.edu
 -`-__||__-'- Call -Low Budget Land-    -`-__||__-'- .. .  .  .  .  .

/ ./||\. \ (813) 598-1738 / ./||\. \ FIDOnet @1:3630/190
Date: Sat, 9 Sep 1995 18:11:54 -0500
From: jonathan@cora.com (Jonathan)
Subject: TAB: Have A Cigar (Pink Floyd)
Pink Floyd
                                      ----------

Have A Cigar
by Roger Waters
transcribed by Jonathan
Notes:
X = muted / = slide up \ = slide down or dive B = bend (n)B = pre-bend
R = release H = hammer-on P = pull-off ~~ = vibrate PM = palm mute
gtr 1
Rhy. Fig. 1 end Rhy. Fig. 1 Rhy. Fig. 2 end
Rhy. Fig. 2
|-----------|----------------|-----------------|----------------|-----------
----------|
|-----------|----------------|-----------------|----------------|-----------
----------|
|-X\X\X\X\X\|----------------|-----------------|----------------|-----------
----------|
|-X\X\X\X\X\|---2------2---2-|---2-----2-------|---2------2---2-|---2-----2-

-X\X\X\X\-|
|-X\X\X\X\X\|---2------2---2-|---2-----2-------|---2------2---2-|---2-----2-

-X\X\X\X\-|
|-X\X\X\X\X\|-0---0-3B-------|-----3-0---3~~~~-|-0---0-3B-------|-----3-0---

-X\X\X\X\-|
gtr 2
w/bar
|---------|---------|-------------------|-----------------|-------------|---
----------|
|---------|---------|-------------------|-----------------|-------------|---
----------|
|---------|---------|-------------------|-----------------|-----------2B|(4)
-----~~~~~|
|---------|---------|-------------------|-----------------|-------------|---
----------|
|---------|---------|----------------/7-|---5-------------|-------------|---
----------|
|---------|---------|-------------------|-----7-6-5-3~~~~-|-------------|---
----------|

| gtr 1
|w/Rhy. Fig. 1 w/Rhy. Fig. 1
|---------|---------|-------------------|-----------------|-------------|---
----------|
|---------|---------|-------------------|-----------------|-------------|---
----------|
|---------|---------|-------------------|-----------------|-------------|---
----------|
|---------|---------|---2------2------2-|---0-------------|-------------|---
----------|
|---------|---------|---2------2--------|-----2-1-0-------|-------------|---
----------|
|---------|---------|-0---0-3B----------|-----------3~~~~-|-------------|---
----------|
|-----------------|----------------|---------------|----------------|-------
----------|
|-----------------|----------------|---------------|----------------|-------
----------|
|~~\--------------|----------------|---------------|----------------|-------
----------|
|-----------------|----------------|---------------|----------------|-------
----------|
|-----------------|-7----9----10---|---------------|----------------|-------
----------|
|-----------------|----------------|-8-------------|----------------|-------
----------|

|
|Rhy. Fig. 3-----] Rhy. Fig. 4
|-----------------|----------------|---------------|----------------|-------
----------|
|-----------------|----------------|--------5------|---5----5-5---5-|--^----
--5-------|
|-----------------|----------------|--------5------|---5----5-5---5-|-4/5---
--5---5---|
|---2------2------|-2----4-----5---|--------5----4-|-4-5----5-5---5-|-4/5---
5-5---5---|
|---2------2------|----------------|-3------3----2-|-2-3----3-3-----|-2/3---
--3---3---|
|-0---0-3B--------|----------------|---------------|----------------|-------
----------|
|----------------|----------------------|--------------|-------------|------
----------|
|----------------|-----------12-12-12-12|-12-\---------|-------------|------
----------|
|----------------|-----------12-12-12-12|-12-\---------|-------------|------
----------|
|----------------|-2--------------------|--------------|-------------|------
----------|
|------10----9\--|----------------------|--------------|-------------|-7----
9----10---|
|-8--------------|----------------------|--------------|-------------|------
----------|

|
| end Rhy. Fig. 4 w/Rhy. Fig 1 w/Rhy. Fig. 3 Rhy.
Fig. 5
|----------------|----------------------|--------------|-------------|------
----------|
|----------------|----------------------|--------------|-------------|------
----------|
|----------------|----------------------|--------------|-------------|------
----------|
|------5-----4---|----------------------|--------------|-------------|-2----
4-----5---|
|-3--------------|----------------------|--------------|-------------|------
----------|
|----------------|----------------------|--------------|-------------|------
----------|
|---------------|----------------|----------------|----------------|--------
---------|
|---------------|----------------|----------------|----------------|--------
---------|
|---------------|-------(9)B(12)R|(9)-------------|----------------|--------
---------|
|---------------|----------------|----------------|-0--------------|--------
---------|
|---------------|----------------|----------------|----------------|-10----9
-----7---|
|-8-------------|----------------|----------------|----------------|--------
---------|

|
|
|---------------|----------------|----------------|----------------|--------
---------|
|--------5----5-|--------5-5---5-|-5-------5------|-----------7----|--------
---------|
|--------5----5-|--------5-5---5-|-5-----5-5------|-----------7----|--------
---------|
|--------5----5-|--------5-5---5-|-5-----5-5------|-----------7----|-5-----4
---------|
|-3------3------|----3-3-3-3-----|-3---3---3------|-5--------------|--------
-----7---|
|---------------|----------------|----------------|----------------|--------
---------|

PM-)
w/bar
|----------------------|----------|----------------------|-------------|----
---------||
|----------------------|----------|----------------------|-------------|----
---------||
|----------------------|----------|---------------19B(21)|~~~~~~~~~~~\-|----
---------||
|----------------------|----------|----------------------|-------------|----
---------||
|----------------------|-7~~~~~---|----------------------|-------------|----
---------||
|--10----9---8-9-10-11-|----------|----------------------|-------------|----
---------||

|
| end Rhy. Fig. 5 w/Rhy. Fig. 1 w/Rhy. Fig. 2
|----------------------|----------|----------------------|-------------|----
---------||
|----------------------|----------|----------------------|-------------|----
---------||
|----------------------|----------|----------------------|-------------|----
---------||
|----------------------|----------|----------------------|-------------|----
---------||
|---5----4---3-4-5--6--|----------|----------------------|-------------|----
---------||
|----------------------|----------|----------------------|-------------|----
---------||

gtr 2
w/Rhy. Fig. 1 (2x) w/bar
|-----------------------|--------------------------|------------------|-----
----------|
|-----------------------|--------------------------|------------------|-----
----------|
|-----------------------|--------------------------|--------2B(4)~~~~~|~~~~\
----------|
|-----------------------|--------------------------|------------------|-----
----------|
|-----------------------|--------------------------|------------------|-----
----------|
|-----------------------|--------------------------|------------------|-----
----------|

Come in here, dear boy, have a cigar, you're gonna go far.
You're gonna
gtr 1 Rhy. Fig. 6 end
Rhy. Fig. 6
|---------------------|-----------------------------|-----------------------
----------|
|---------------------|--------------1--------------|-----------------3-----
----------|
|---------------------|------------0----------------|-------------0-------0-
----------|
|-----2-------2---2---|----------2--------0-------0-|-----------4-----------
--4-------|
|-----2-------2---2---|-3----------------------2----|-5---------------------
----------|
|-0------0-3B---------|-----------------------------|-----------------------
----------|

fly high, you're never gonna die, you're gonna make it if you try,
they're gonna
gtr 2
w/Rhy. Fig. 1 (4x)
|----------------|-----------|----------|------------|----------------------
----------|
|-------15-------|-----------|----------|------------|----------------------
----------|
|-(14)B(15)----R-|(14)-------|----------|------------|----------------------
----------|
|----------------|-----------|----------|------------|----------------------
----------|
|----------------|-----------|----------|------------|----------------------
----------|
|----------------|-----------|----------|------------|----------------------
----------|

love you. Well, I've always had a deep
respect, and I
w/bar w/Rhy. Fig. 3
|----------------------^---|-----------|--------------|---------------------
----------|
|--------------------12/14-|-12~~~-----|--------------|---------------------
----------|
|--------------------12/14-|-12~~~-----|--------2B(4)-|--R-(2)--------------
----------|
|--------------------------|-----------|--------------|---------------------
----------|
|--------------------------|-----------|--------------|---------------------
----------|
|--------------------------|-----------|--------------|---------------------
----------|

mean that most sin - cere - ly. The band is just
fantastic, that is
w/Rhy. Fig. 6 w/Rhy. Fig. 1 (2x)
|------------------------|-----------------------|--------------------------
----------|
|------------------------|-----------------------|--------------------15B(17

)-15B(17)~|
|------------------------|-----------------------|--------------------------
----------|
|------------------------|-----------------------|--------------------------
----------|
|------------------------|-----------------------|--------------------------
----------|
|------------------------|-----------------------|--------------------------
----------|

really what I think. Oh, by the way, which one's Pink?
gtr 2
|-----------|----------|-----------------|------------------------------|---
----------|
|~~~~R(15)--|----------|-----------------|------------------------------|---
----------|
|-----------|----------|-----------------|------------------------------|---
----------|
|-----------|----------|-----------------|------------------------------|---
----------|
|-----------|----------|-----------------|------------------------------|---
----------|
|-----------|----------|-----------------|------------------------------|---
----------|

|
| gtr 1 Rhy. Fig. 7
|-----------|----------|-----------------|-0--------X---0-----------0---|-0-
------0-0-|
|-----------|----------|-----------------|-1--------X---3-----------0---|-1-
------1-1-|
|-----------|----------|-----------------|-0--------X---0-----------0---|-0-
------0-0-|
|-----------|----------|-----------------|-2--------X---4-----------2---|-2-
------2-2-|
|-----------|----------|-----------------|-3--------X---5-----------2---|-3-
------3-3-|
|-----------|----------|-----------------|--------------------------0---|---
----------|

And if we tell you the name of the game, boy,
gtr 1
|---0---0-------2--2---2--2--2-|-----------|----------------|---------------
-----|
|---1---1-------3--3---3--3--3-|-0---------|----------------|---------------
-X---|
|---0---0-------2--2---2--2--2-|-0---------|----------------|---------------
-X-5-|
|---2---2-------0--0---0--0--0-|-0---------|----------------|----5----------
-X-5-|
|---3---3----------------------|-2---------|----------5-5---|(5)H7----------
-X---|
|------------------------------|-3---------|------3/7-------|---------------
-----|

we call it "riding the gravy train."
end Rhy. Fig. 7 w/Rhy. Fig.
1 (4x)
|-------------------|-----------------|-3--2-----2--1---------||----------|-
----------|
|-------------X-5\--|-0---------------|-3--2-----2--1---------||----------|-
----------|
|-5-------5---X-5\--|-0-------0-------|-4--3-----3--2---------||----------|-
----------|
|-5-------5---X-5\--|-0-------0-------|-5--4-----4--3--X-X--X\||----------|-
----------|
|-5H7---7-----------|-2-------2-------|-5--4-----4--3--X-X--X\||----------|-
----------|
|-------------------|-3---3---3-------|-3--2-----2--1--X-X--X\||----------|-
----------|

gtr 2
|-----------------------------------|---------------------|-----------------
----|
|------------------X15B(17)R(15)P12-|15B(17)~~~~----------|-----------------
----|
|-----------------------------------|---------------------|-----------------
----|
|-----------------------------------|---------------------|-----------------
----|
|-----------------------------------|---------------------|-----------------
----|
|-----------------------------------|---------------------|-----------------
----|

We're just knocked out.
|-----------------------------|------------------------|
|-----------------------------|------------------------|
|---------------(2)B(4)R(2)P0-|------------------------|
|-----------------------------|------------------------|
|-----------------------------|------------------------|
|-----------------------------|------------------------|

We heard about the sellout.
w/Rhy. Fig. 3
|---------------------------------------|---------------------------|
|---------------------------------------|---------------------------|
|-------2B(4)R(2)B(4)R(2)P0-2B(4)-------|---------------------------|
|---------------------------------------|---------------------------|
|---------------------------------------|---------------------------|
|---------------------------------------|---------------------------|

You've gotta get an album out, you
w/Ryh. Fig. 6 w/Rhy. Fig. 1 (4x)
|---------------------------|-----------------------|-------------------------|
|---------------------------|-----------------------|-----------15------------|
|---------------------------|-----------------------|-----(14)B(16)--R(14)----|
|---------------------------|-----------------------|-------------------------|
|---------------------------|-----------------------|-------------------------|
|---------------------------|-----------------------|-------------------------|

owe it to the people. We're so happy, we can hardly count.
|----------|----------|----------|-----------------------------|------------
----------|
|----------|----------|----------|-----------------------------|----------(1

2)/14\12--|
|----------|----------|----------|-----------------------------|----------(1

2)/14\12--|
|----------|----------|----------|-----------------------------|------------
----------|
|----------|----------|----------|-----------------------------|------------
----------|
|----------|----------|----------|-----------------------------|------------
----------|

Ev'rybody else is just green.
Have
w/Rhy. Fig.3 w/Rhy. Fig. 6
|--------------------|-----------|-------------------------|----------------
----------|
|--------------------|-----------|-------------------------|----------------
----------|


C D E Em G
variations - click chord images
Transpose chords:
Tuning:
Cool service:
View: Size:
A  A  A
Rating:
Layout:
  • Currently 2.4/5 Stars.
  • 1
  • 2
  • 3
  • 4
  • 5
 
Accuracy:
  • Currently 2.5/5 Stars.
  • 1
  • 2
  • 3
  • 4
  • 5
 
click stars to rate
Chordie recommends:
Learn to play guitar with video-based, online guitar lessons at JamPlay.com
Songbook:
Login to add this song to your songbook
Support the artist
Preview/buy this song
MSN Music
Why this non-profit ad?

 
login to add comments/video/corrections