Anyone Can Play Guitar

Radiohead

 Em
e --0--------12-----12-------0----12--
B --0---------------------------------
G --0---------------------------------
D --2---------------------------------
A --2---------------------------------
E --0---------------------------------
e ---------------------------------
B ---------------------------------
G ---------------------------------
D ---------------------------------
A --7---6------10---9-----13---12--
E ---------------------------------

INTRO :
 EmC
--0-----------------0/x/8----x-----8------8\x\x\x\x\0----------/8----x-----8---\x--
--0-----------------0/x/8----x-----8------8\x\x\x\x\0----------/8----x-----8---\x--
--0-----------------0/x/9----x-----9------9\x\x\x\x\0----------/9----x-----8---\x--
--2-----------------2/x/10---x----10-----10\x\x\x\x\2----------/10---x----10---\x--
--2-----------------2/x/10---x----10-----10\x\x\x\x\2----------/10---x----10---\x--
--0-----------------0/x/8----x-----8------8\x\x\x\x\0----------/8----x-----8---\x-- 

slide up slide down slide up slide down
VERSE :
 EmCEm
--0----------------------------------0/x/8-------8\x\0----------------------------------------------0/x/8
--0----------------------------------0/x/8-------8\x\0----------------------------------------------0/x/8
--0----------------------------------0/x/9-------9\x\0----------------------------------------------0/x/9
--2----------------------------------2/x/10-----10\x\2----------------------------------------------2/x/10
--2----------------------------------2/x/10-----10\x\2----------------------------------------------2/x/10
--0----------------------------------0/x/8-------8\x\0----------------------------------------------0/x/8

Destiny, destiny protect me from the world,.......... destiny, hold my hand protect me from the world
ADD (sur couplet) :
 EmCEmC
B----------------11--13-----------------------11--13--------13--11--13
G------------------------12-----------------------------12------------------12

BRIDGE :
---------------------------------------------------------------------------------------------
----------------------------------------------------------------------------------------------
--11--12--14--12--11---------9------------11---------------12-----------14----------16--16--16
----------------------------------------------------------------------------------------------
--9---10--12--10---9---------7-------------9---------------10-----------12----------14--14--14
----------------------------------------------------------------------------------------------

Here we are...... with our running and confusion, and I don't see no confusion anywhere
CHORUS :
 G5G5/F#Em5C5C5/BA5D5D5/CG5Em5D5
-----------------------------------------------------------------------------------------------------
-----------------------------------------------------------------------------------------------------
--------------------------------------5-----5------2--------------7-------7------------------------7-
-----------5------5--------2----------5-----5------2--------------7-------7-------5-----------2----7-
-----------5------5--------2----------3-----2------0--------------5-------3-------5-----------2----5-
-----------3------2--------0------------------------------------------------------3-----------0------

And if the worm ...does... turn and if Lon....don.. burns I'll be standing on the beach with my guitar
 D5G5G5/F#Em5C5C5/BA5D5G5Em5D5
----------------------------------------------------------------------------------------------------------------
----------------------------------------------------------------------------------------------------------------
--7------------------------------5--------5-------2---------7-------------------------------------------------7-
--7------5-----5------2----------5--------5-------2---------7---------------5-----------------2---------------7-
--5------5-----5------2----------3--------2-------0---------5---------------5-----------------2---------------5-
---------3-----2------0-----------------------------------------------------3-----------------0-----------------

I wanna be.. in a.. band when I get to. hea.....ven ...anyone can play guitar, and they won't be a nothing anymore
INTERLUDE :
 C5EmBbEm
-------------------------------------------------------------------------------------------
-------------------------------------------------------------------------------------------
-5--------------------------------------------------------------------------9---7--5--4-
-5----------------------------------------------------------------------------------------
-3----------------------------------------------------------------------------------------
-------3--2--0-----0--2--3--5--6----5--3--6----5--3--6---5--3--0------------------ 

 BbEm
--------------------------------------------------------------0-
--------------------------------------------------------------0-
--------------------------------------------------------------0-
-------5---7---8------7---5---8------7---5---8------7---5-----2-
--------------------------------------------------------------2-
-------3---5---6------5---3---6------5---3---6------5---3-----0-

2nd Bridge + SOLO :
-----------------------------------------------------------------------------------------------
-----------------------------------------------------------------------------------------------
-11--12--14--12--11---------9-------------11--------------12-------------14----------16--17--19
-----------------------------------------------------------------------------------------------
-9---10--12--10---9---------7--------------9--------------10-------------12----------14--15--17
-----------------------------------------------------------------------------------------------

Here.we are...... with our running and confusion, and I don't see no confusion anywhere
SOLO
--------------------------------------------------------------------------------
--------------------------------------------------------------------------------
--------------------------------------------------------------------------------
-19---19---19---17-19-19--17-19-19--17-19-19--17-19-19---17\16\14\12\11\9\7\5\4-
--------------------------------------------------------------------------------
-17---17---17-------------------------------------------------------------------
--------------------------------------------------------------------------------

For the second part of the mini lead just before the
second verse, I give you this:
e----------------------------------------------------------------------
B--5------------5--5------------------------------------------------
G--7b(9)b7--5--4--0-2-3--0-2-3-2-0-3-2-0-------------
D----------------------------------------------------------2----------
A----------------------------------------------------------------------
E----------------------------------------------------------------------

bend and release: 7b(9)b7













A5 Bb C C5 C5/B D5 D5/C Em G5 G5/F#
variations - click chord images
Transpose chords:
Tuning:
Cool service:
View: Size:
A  A  A
Rating:
Layout:
  • Currently 4/5 Stars.
  • 1
  • 2
  • 3
  • 4
  • 5
 
Accuracy:
  • Currently 3.4/5 Stars.
  • 1
  • 2
  • 3
  • 4
  • 5
 
click stars to rate
Chordie recommends:
Learn to play songs at Jamplay.com with video guitar lessons
Songbook:
Login to add this song to your songbook
Support the artist
Preview/buy this song
MSN Music
Why this non-profit ad?

 
login to add comments/video/corrections