Chordie logo

Blow Out   Radiohead


-----------------------------------------------------------------
-7-----7-7-----7---7---7---5---7-7-----7-7-----7---7---7---5---7-
-5-----5-5-----5---5---5---5---5-5-----5-5-----5---5---5---5---5-
-----------------------------------------------------------------
-7-----7-7-----7---7---7---7---7-7-----7-7-----7---7---7---7---7-
-----------------------------------------------------------------




-1 & 2 & 3 & 4 &-1 & 2 & 3 & 4 &-1 & 2 & 3 & 4 &-1 & 2 & 3 & 4 &


                                                                             


-----------------------------------------------------------------
-7-----7-7-----7---7---7---5---7-3-----4-4-----------------------
-5-----5-5-----5---5---5---5---5-5-----7-7-----------------------
-------------------------------5-5-----7-7-----------------------
-7-----7-7-----7---7---7---7---7-4-----6-6-----------------------
-----------------------------------------------------------------




                                           Let Ring_____________


-1 & 2 & 3 & 4 &-1


                                                                             


------------------
/9-9-----7--------
---7-----6--------
------------------
------------------
------------------


Important: The song above is NOT stored on the Chordie server. The original song is hosted at flarere.free.fr. Chordie works as a search engine and provides on-the-fly formatting. Chordie does not index songs against artists/composers will. To remove this song please click here.

This song is displayed as text-only. Transposing and tuning is only available for chordpro-songs.

Login - add to songbook

Rating click stars to rate

Layout
Accuracy

SHARE PAGE  

You need to log in to post comments