Guitar Tabs, Chords and Lyrics


Creep  Radiohead

e |----------------------------------|----------------------------------|
B |----------------------------------|3-----------------------3---------|
G |--------------------4-------------|----4-------4---------------------|
D |--------5-------5-----------5-----|--------5-------------------5/----|
A |----5-------5---------------------|----------------------------------|
E |3---------------------------------|----------------------------------|

1 & 2 & 3 & 4 & 1 & 2 & 3 & 4 &
e |----------------------------------|----------------------------------|
B |----------------------------------|----------------------------------|
G |--------8-----------8-------------|9-----------8-----------8---------|
D |------------9---------------------|------------9---------------9-----|
A |----9-----------9-----------------|----9-----------------------------|
E |7---------------------------------|----------------------------------|

1 & 2 & 3 & 4 & 1 & 2 & 3 & 4 &
e |----------------------------------|----------------------------------|
B |----------------------------------|----------------------------------|
G |--------9-----------9-------------|10----------9-----------9---------|
D |----------------------------------|----------------------------10----|
A |----10------10--------------10----|--------10----------10------------|
E |8---------------8-----------------|----------------------------------|

1 & 2 & 3 & 4 & 1 & 2 & 3 & 4 &
e |----------------------------------|----------------------------------|
B |----------------------------------|----------------------------------|
G |----8-----------8-----------------|----8-----------8-----------------|
D |--------10----------10------10----|--------10----------10------------|
A |10----------10----------10--------|10----------10----------10--------|
E |------------------------8---------|----------------------------------|

1 & 2 & 3 & 4 & 1 & 2 & 3 & 4 &
Guitar 2
|----------x-x-------|----x-x---------x-x-----|
|----------x-x-------|----x-x---------x-x-----|
|----------x-x-------|----x-x---------x-x-0-0-|
|----------x-x-------|----x-x---------x-x-0-0-|
|----------x-x-------|----x-x---------x-x-----|
|----------x-x-------|----x-x---------x-x-----|
--3----------------|----------------------|--7---------7-7-7-7--7--|-------------------------|
--3----------------|----------------------|--7---------7-7-7-7--7--|----------0-0-0-0-0------|
--0----------------|------------0--0--0-0-|--8---------8-8-8-8--8--|-------------------------|
--0----------------|------------0--0--0-0-|--9------------------9--|-------------------------|
-------------------|----------------------|--9------------------9--|---------------------9-9-|
--3----------------|------------3--3------|--7------------------7--|---------------------7-7-|
------------------------------------------|------------------|----------------------------------------------|
------------------------------------------|------------------|----------------------------------------------|
------------------------------------------|------------------|----------------------------------------------|
--10----10--10--10--10--12-12-12-12-12-12-|------------------|--13----13--13--13-13-13-13/15-15-15-15-15-15-|
------------------------------------------|------------------|----------------------------------------------|
--8-----8---8---8---8---10-10-10-10-10-10-|------------------|--11----11--13--11-11-11-13/13-13-13-13-13-13-|

2x
----------------------------------||
----------------------------------||
---------------------------------*||
--15-15-15-13--15--------15/--17-*||
----------------------------------||
--13-13-13-15--13--------13/--15--||

Radiohead - Creep
When you were here [G]before
Couldn't look you in the [B]eye
You're just like an [C]angel
Your skin makes me [Cm]cry
You float like a [G]feather
In a beautiful [B]world
And I wish I was [C]special
(CHORUS)
But I'm a [G]creep,
I'm a [B]weirdo.
What the hell am I doing [C]here?
I don't belong [Cm]here.
I don't care if it hurts
I want to have control
I want a perfect body
I want a perfect soul
I want you to notice
When I'm not around
You're so fuckin' special
I wish I was special
(CHORUS)
But I'm a creep,
I'm a weirdo.
What the hell am I doing here?
I don't belong here.
She's running out again,
She's running out
She's run run run running out...
Whatever makes you happy
Whatever you want
You're so fuckin' special
I wish I was special...
But I'm a creep,
I'm a weirdo,
What the hell am I doing here?
I don't belong here. I don't belong here.
Radiohead - Creep
[Bass]                                                                                                                       
G||------------------------|------------------------|-------------------------|------------------------|
D||------------------------|------------------------|-------------------------|------------------------|
A||------------------------|------------------------|--2----2---2-2--2--------|--2----2-----2--2----2--|
E||--3----3---3-3--3----3--|--3----3---3-3--3----3--|---------------------2-2-|-----------2------------|
------------------------|------------------------|------------------------|-----------------------|
------------------------|------------------------|------------------------|-----------------------|
--3----3-----3--3-------|--3----3---3-3--3-------|--3----3---3-3--3----2--|--3----5---x-6---------|
-----------3---------3--|---------------------3--|------------------------|--------------------1--|

(Verse)
|-------------------------|------------------------|-------------------------|-------------------------|
|*------------------------|------------------------|-------------------------|-------------------------|
|*------------------------|------------------------|--2----2---2-2--2--------|--2----2-----2--2----2-2-|
|---3----3---3-3--3----3--|--3----3---3-3--3----3--|---------------------2-2-|-----------2-------------|
------------------------|-----------------------|------------------------|----------------------|
------------------------|-----------------------|------------------------|-----------------3----|
--3----3-----3--3-------|--3---------3--3-------|--3----3-----3--3-------|--3----5----6---------|
-----------3---------3--|----------3---------3--|-----------3---------3--|----------------------|
------------------------|------------------------|-------------------------|------------------------|
------------------------|------------------------|-------------------------|------------------------|
------------------------|------------------------|--2----2---2-2--2--------|--2----2-----2--2-------|
--3----3---3-3--3----3--|--3----3---3-3--3----3--|---------------------2-2-|-----------2---------2--|
------------------------|-------------------------|--------------------------|-----------------------|
------------------------|---------------------0h1-|--------------------------|----------------3------|
--3----3-----3--3-------|--3----3-----3--3--------|--3----3-----3--3-3-3-----|--3----5---x-6---------|
-----------3---------3--|-----------3-------------|-----------3-----------3--|-----------------------|

(Chorus)
-------7----------------|--7-------7------------|-------4----------------|-----4------------------|
--5--------5-5--5----5--|-----5---------5--5\---|------------------------|------------------------|
------------------------|-----------------------|--2--------2-2--2-------|--2-------2--2--2----2--|
------------------------|-----------------------|---------------------2--|------------------------|

2x
------------------------|-------------------------|-------5-----------------|---------------------||
------------------------|--------------------5----|-------------------------|--------------------*||
--3----3-----3--3-------|--3----3------3--3-------|--3-------3-3-3--3-------|--3--3--------------*||
-----------3---------3--|----------3-3------------|----------------------3--|---------------------||

____ _ _ _
| _ \ __ ___ _| | _| |_ __ _| |__ ___
| |_) / _` \ \ /\ / / |/ / __/ _` | '_ \/ __|
| _ < (_| |\ V V /| <| || (_| | |_) \__ \
|_| \_\__,_| \_/\_/ |_|\_\\__\__,_|_.__/|___/
http://www.rawktabs.tmfweb.nl

Important: The song above is NOT stored on the Chordie server. The original song is hosted at flarere.free.fr. Chordie works as a search engine and provides on-the-fly formatting. Chordie does not index songs against artists'/composers' will. To remove this song please click here.

Text color:
Chord color:
Chord grids: 
Font size:    
Page size: 

B C Cm G
variations - click chord images

Login - add to songbook

Transpose chords

Tuning

Rating click stars to rate

Layout
Accuracy

SHARE PAGE  




You need to log in to post comments