eToCache5 = ""; ?> Just by Radiohead - guitar chords, guitar tabs and lyrics - chordie

Just

Radiohead

-5-5---5---8-8-8-----7---7---7---10-10------------------
-5-5---5---8-8-8-----7---7---7---10-10------------------
-5-5---5-x---8-8-x-x-7---7---7-x-10-10------------------
-3-3---3-x---6-6-x-x-5-5-5-5-5-x-8--8-------------------
--------------------------------------------------------
#  Guitar 2

--------------------------------------------------------
--------------------------------------------------------
-------------------------------x---x---x---x------------
-------------------------------x---x---x---x------------
---------------------------------x---x---x--------------
---------------------------------x---x---x--------------
#
  --------------------------7-8--10-11--13-14---16-17\----
  --------------------------------------------------------
  --5---7-8--10-11--13-14---4-5---7-8---10-11---13-14\----
  --------------------------------------------------------
  --3---5-6---8-9---11-12---------------------------------
  --------------------------------------------------------

#VERSE 1 C[A5]an't get the stink off, [G#5]he's been hanging round for days
 EbF
  --------------------------------------------------------
  -8-9-11--10-11-13~--------------------------------------
  -8-------10-12-14---------------------------------------
  --------------------------------------------------------
  --------------------------------------------------------
  --------------------------------------------------------

 A5G#5
  Comes like a comet, suckered you but not your friends
 EbBb
  -3-4-6--------------------------------------------------
  -4-------3--4-6-----------------------------------------
  ---------3--5-7-----------------------------------------
  --------------------------------------------------------
  --------------------------------------------------------
  --------------------------------------------------------

One day he'll get to you.. .. ho - ly cow
  --------------------------------------------------------
  -----.------------------.-------------------------------
  ---5-7--7b9---5~------5-7-7b8---5---4--------5-----7b9--
  -7----------7-------7---------6-------5--------4--------
  ----------------------------------------5--------4------
  --------------------------------------------------------

CHORUS 1
You do it to yourself you do that's why it really hurts
  ----------------------------0----1------------------0---
  -----------------5---------------1--------------------1-
  -----------------5--------3---3--2----------------------
  -----------------5--------4------3----------------------
  -----------------3--------4------3----------------------
  --------------------------2------1----------------------

REPEAT INTRO
VERSE 2 - Play the same as verse 1 but with straight A and
G# chords.
CHORUS 2
BRIDGE
 EmDACEmDAC
  --------------------------(12)--------------------------
  -5--7-8--10--10b11~--12--------10----8-----7----5-------
  ---------------------14b16-----12b14-10b12-9b11-7b9r8b9-
  --------------------------------------------------------
  --------------------------------------------------------
  --------------------------------------------------------

 AmG#Eb
  --------------------------------------------------------
  --5--5-----3---1-1-------4--4----3---1-1----------------
  --5--5--5--4-x-2-2-x-x---5--5-x--3-x-1-1---3h5-3--3-----
  -------------------------------------------5h6-5--5-x-x-
  --------------------------------------------------------
  --------------------------------------------------------

 BbAmG#
  --1/3-1---1---------------------------------------------
  --1/3-1-1-1--x-x--5--5----3---1-1------4-4---3----1-1---
  -------------x-x--5--5--x-4-x-2-2-x-x--5-5-x-3--x-1-1-x-
  --------------------------------------------------------
  --------------------------------------------------------
  --------------------------------------------------------

guitar 1 & 2 (with distortion)
  --------------------------------------------------------
  --------------------------------------------------------
  ------------------.-------------------------------------
  --5-5-5-5-4-4-4-4-3-------------------------------------
  --5-5-5-5-4-4-4-4-3-------------------------------------
  --3-3-3-3-2-2-2-2-1-------------------------------------

CHORUS 3 - Instrumental, with pickscrape noise and fill,
guitar 3 (with distortion)
  --------------------------------------------------------
  ----------------1----1----------------------------------
  --5-4---3-------2h3--2----------------------------------
  --------------------------------------------------------
  --------------------------------------------------------
  --------------------------------------------------------

REPEAT INTRO
REPEAT INTRO - guitar 2 up 2 octaves (whammy pedal?)
OUTRO - guitar 2 sustains last note of previous part
guitar 1 plays C, Bb, Am, Eb
guitar 2 (clean)
  --------------------------------------------------------
  --------------------------------------------------------
  --x--x--x--8------8~----x-x----8------8-----------------
  --x-----x--8------8-----x-x----8------8-----------------
  -----------7--x-x-7----------x-7--x-x-7-----------------
  -----------8------8------------8------8-----------------

OUTRO SOLO - guitar 2 (w/ distortion)
  --------------------------------------------------------
  --------------------------------------------------------
  --------------------------------------------------------
  ----------.-------.----.----------.-------.----.--------
  -(10b)13-13---13-13---13------13-13---13-13---13--------
  --------------------------------------------------------
  --------------------------------------------------------
  --------------------------------------------------------
  --------------------------------------------------------
  ----------.-------.----.--------------------------------
  ------13-13---13-13---13------13-13-13-13-13-13-13------
  --------------------------------------------------------
  --------------------------------------------------------
  --------------------------------------------------------
  --------------.------------------.------------------.---
  -(10b)13r10-8-10---10-10b13r10-8-10---10-10b13r10-8-10--
  --------------------------------------------------------
  --------------------------------------------------------
  -------------------8b10r8-6-----------------------------
  ----------------------------10b11r10-8------------------
  ---------------.-----------------------8----------------
  -10-10b13r10-8-10------------------------10-------------
  --------------------------------------------------------
  --------------------------------------------------------
  --------------------------------------------------------
  --------------------------------------------------------
  --------------.------------------.------------------.---
  -(10b)13r10-8-10---10-10b13r10-8-10---10-10b13r10-8-10--
  --------------------------------------------------------
  --------------------------------------------------------
  --------------------------------------------------------
  --------------------------------------------------------
  ---------------.---10b11-11-11-11-11-11-11-11-11-11-----
  -10-10b13r10-8-10---------------------------------------
  --------------------------------------------------------
  --------------------------------------------------------
  --------------------------------------------------------
  --------------------------------------------------------
  --------------.------------------.------------------.---
  -(10b)13r10-8-10---10-10b13r10-8-10---10-10b13r10-8-10--
  --------------------------------------------------------
  --------------------------------------------------------
  -------------------8b10r8-6-----------------------------
  ----------------------------10b11r10-8------------------
  ---------------.-----------------------8----------------
  -10-10b13r10-8-10------------------------10-------------
  --------------------------------------------------------
  --------------------------------------------------------
  --------------------------------------------------------
  --------------------------------------------------------
  --------------.------------------.----------------------
  -(10b)13r10-8-10---10-10b13r10-8-10---10-10b13r10-8b10\-
  --------------------------------------------------------
  --------------------------------------------------------
  --------------------------------------------------------

Submitted By:
Mark van 't Zet
USED CHORDS
A 577655 A5 577xxx Bb x1333x C x3555x
D x5777x Eb x6888x Em 022000 F 133211
F#7 2443x0 G 3x0033 G# 466544 G#5 466xxx


A A5 Am Bb C D Eb Em F G# G#5
variations - click chord images
Transpose chords:
Tuning:
Cool service:
View: Size:
A  A  A
Rating:
Layout:
  • Currently 2.2/5 Stars.
  • 1
  • 2
  • 3
  • 4
  • 5
 
Accuracy:
  • Currently 3.4/5 Stars.
  • 1
  • 2
  • 3
  • 4
  • 5
 
click stars to rate
Chordie recommends:
Get acoustic guitar lessons and electric guitar lessons at JamPlay.com
Songbook:
Login to add this song to your songbook
Support the artist
Preview/buy this song
MSN Music
Why this non-profit ad?

 
login to add comments/video/corrections