Kid A

Radiohead

Chords:
E A D G B e
F: 1 3 3 2 1 1
A#: x 1 3 3 3 1
Dm: x x 0 2 3 1
C: x 3 2 0 1 0
A#/A: x 0 3 3 3 1
Intro:
there's a piano bit i won't bother to tab...
 FA#DmC
   A#         ----> 4 times
Verse:
Here is the progression played throughout the verses
-----------------17--17--17------15----------18-------------------------------
-----15--15--18--------------18------17--------------13------15---------------
-15--15------15------------------------------------------12-------------------
-------------------------15------14------17------15------14-------------------
-----------------17-----------------------------------------------------------
------------------------------------------------------------------------------

Then the bass riff begins overtop
------------------------------------------------------------------------------
------------------------------------------------------------------------------
------------------------------------------------------------------------------
------------------------------------------------------------------------------
------------------------------------------------------------------------------
-1-1----3-3----6-6-----5-5-------5-5----3-3-----------------------------------

The bass riff at the end of the first verse goes like this
------------------------------------------------------------------------------
------------------------------------------------------------------------------
------------------------------------------------------------------------------
-5-5--3-3-------------5-5--3-3------------------------------------------------
--------------------------------5-5-------------------------------------------
--------------1-1--------------------1-1--------------------------------------

 FA#DmCCA#
   I  sit     away
 FA#DmCCA#
    I  sit down away 
Bridge:
A# A#/A F ---> 4 times
Verse:
F A# Dm C C A# and so on...
We got heads on sticks
And you got them toothpicks
We got heads on sticks
But you go in circles
Chorus:
 A#A#/AF
 Stand and shout
 A#A#/AF
 Have no problems
 A#A#/AF
 Stand and shout
 A#A#/AF
 Have no problems
 A#A#/AF
I am standing in the shadow
 A#A#/AF
By the end of my bed
during the chorus and the bridge try to play the last 3 strings along with the bass of the note so to get the effect of the organ that is playing in the song.


A# C Dm F
variations - click chord images
Transpose chords:
Tuning:
Cool service:
View: Size:
A  A  A
Rating:
Layout:
  • Currently 2.8/5 Stars.
  • 1
  • 2
  • 3
  • 4
  • 5
 
Accuracy:
  • Currently 4.5/5 Stars.
  • 1
  • 2
  • 3
  • 4
  • 5
 
click stars to rate
Chordie recommends:
Learn to play songs at Jamplay.com with video guitar lessons
Songbook:
Login to add this song to your songbook
Support the artist
Preview/buy this song
MSN Music
Why this non-profit ad?

 
login to add comments/video/corrections