Knives Out

Radiohead

 CmBbadd6Ab
e---------------------------------------------------------------------
B--------8----------------8-------------4----------------------4------
G----8-8---8-8--------7-7---7-7-----5-----5-5----5-5---5---5------5--4
D-------------------------------------6-------5------6-------6--------
A---------------------------------------------------------------------
E---------------------------------------------------------------------

 GmFsus2Em6F#G
e---------------------------------------------------------------------
B--------3--------------3-----------2------------------2--------------
G----3-3---3-3------2-2---2-2-0-------0---0------0-0----------0-0-0---
D---------------------------------2-----2------2-----2------2-------2-
A---------------------------------------------------------------------
E---------------------------------------------------------------------

Verse1
I want you to know
 CmBbadd6Ab
e--------------------------------------------------------------------
B------8--------------8-------------4-------------------------------
G--8-8---8-8------7-7---7-7-----5-----5-5------5-5---0----5---------
D---------------------------------6----------6-----5----------------
A------------------------------------------------------------------
E-------------------------------------------------------------------

he's not coming back
 GmFsus2Em6F#G
e---------------------------------------------------------------------
B-------3---------------3--------------2---------------2----------2---
G---3-3---3-3-------2-2---2-2------0-----0-0-----0-0--------0-0------0
D------------------------------------2---------2-----2----2-----2-----
A---------------------------------------------------------------------
E---------------------------------------------------------------------

he's bloated and frozen still there's
 CmBbadd6Ab
e---------------------------------------------------------------------
B------8--------------8---------------4-----4-------------------------
G--8-8---8-8------7-7---7-7-------5-----5-5------5---5-5-----5----0---
D-----------------------------------6--------------6------6-----------
A---------------------------------------------------------------------
E---------------------------------------------------------------------

no point in letting it go to waste
 GmFsus2Em6
e---------------------------------------------------------------------
B--------3--------------3---------------2-----2----------------------2
G----3-3---3-3------2-2---2-2-------0-----0--------0---0-0-0-------0--
D-------------------------------------2-----2--------2-------2---2----
A---------------------------------------------------------------------
E---------------------------------------------------------------------

Chorus
so knives out cook him up
 AmGmDmDm/C
e------------------------------0-1--------------2-------2----0--2-----
B---1--------------2-----2---3---------3------3---3---3---3-----------
G-----2--------------2-----2--------------2---------2-----------------
D-------2--------------2----------------------------------------------
A---------------------------------------------------------------------
E---------------------------------------------------------------------

don't look down shove it in your mouth
 Bb9Em6
e---------3-------3-----3---------------------------------------------
B-------3---3---3---3--3--3-----------2-----2--------2---------------2
G-----3-------3-------3-----3-------0---0--------0-----0-----0-0---0--
D---------------------------------2-------2--------2-----2-------2--2-
A---------------------------------------------------------------------
E---------------------------------------------------------------------

Verse2
if you'd been a dog they would of
 CmBbadd6Ab
e---------------------------------------------------------------------
B-----------11-----------------11----------11-----------9--------8--4-
G-----12-12----12-12-----12-12----12-----8----8-8-----8---8----8------
D--13---------------------------------10----------10--------10--------
A---------------------------------------------------------------------
E---------------------------------------------------------------------

drowned you at birth
 GmFsus2Em6
e---------------------------------------------------------------------
B-------3------------------3-----------------------------2------2-----
G---3-3---3-3----------2-2---2-2--------0-0--0----0---0-----0---------
D-------------------------------------2----2--------2-----------------
A---------------------------------------------------------------------
E---------------------------------------------------------------------

look into my eyes it's the
 CmBbadd6Ab
e---------------------------------------------------------------------
B-----------13--------------13--------------8--------8---8---8---8----
G-----12-12----12-12-----12----12---------8---8----8---8-------8----8-
D--13----------------------------------10-------10--------------------
A---------------------------------------------------------------------
E---------------------------------------------------------------------

only way you'll know I'm telling the truth
 GmFsus2Em6
e----------------------------0----------------------------------------
B---------3--------------------3------------2-0-3-3-2------2-0-3-3-2--
G---3-3-3---3------------2-2--------------------------0--------------0
D-----------------------------------------2--------------2------------
A---------------------------------------------------------------------
E---------------------------------------------------------------------

Chorus
so knives out cook him up
 AmGmDmDm/C
e------------------------------0-1--------------2-------2----0--2-----
B---1--------------2-----2---3---------3------3---3---3---3-----------
G-----2--------------2-----2--------------2---------2-----------------
D-------2--------------2----------------------------------------------
A---------------------------------------------------------------------
E---------------------------------------------------------------------

squash his head put him in the pot
 Bb9Em6
e------3-----------3-------3------------------------------------------
B----3---3---3---3---3---3--------0---2---3-3---2-0------0---2-3-3-2-0
G--3-------3---3-------3--------0---0---0-----0--------0---0----------
D-----------------------------2----------------------2----------------
A---------------------------------------------------------------------
E---------------------------------------------------------------------

Solo
 CmBbadd6Ab
e---------------------------------------------------------------------
B---------------------------------------------------------------------
G--0--8------------0---7-------------0--5--5-5-5-5-555555-5-5-55---5-5
D---------------------------------------------------------------------
A---------------------------------------------------------------------
E---------------------------------------------------------------------

 GmFsus2Em6
e---------------------------------------------------------------------
B---------------------------------------------------------------------
G---0--7--7--7--7---------0----5--5--5--5------------0-----0-----0----
D-------------------------------------------------------2-----2-----2-
A---------------------------------------------------------------------
E---------------------------------------------------------------------

Chorus
Verse4
I want you to know
 CmBbadd6Ab
e---------------------------------------------------------------------
B--------11-----------------11---------------8------------8--------8--
G--12-12----12-12-----12-12----12----------0---8----0-------0----0---0
D---------------------------------------10-------10---10------10------
A------------------------------------11-------------------------------
E---------------------------------------------------------------------

he's not coming back
 GmFsus2Em6
e---------------------------------------------------------------------
B-------3---------------3-----------------2-------2-----2---2---2--2--
G---3-3---3-3-------2-2---2-2-----------0---0--------0----0---0---0--0
D-------------------------------------2-------2-----------------------
A---------------------------------------------------------------------
E---------------------------------------------------------------------

look into my eyes it's the
 CmBbadd6Ab
e---------------------------------------------------------------------
B---------11----------------11-------------4---4---4---4----4---------
G---12-12----12-12----12-12----12-----5------5---5---5---5-----5------
D-----------------------------------6---6-----------------------------
A---------------------------------------------------------------------
E---------------------------------------------------------------------

only way you'll know I'm telling the truth
 GmFsus2Em6
e---------------------------------------------------------------------
B-------3------------------3----------------2-0-3-3--2-0-----2-0-33-20
G---3-3---3-3----------2-2---2-2---------0----------------0-----------
D---------------------------------------------------------------------
A---------------------------------------------------------------------
E---------------------------------------------------------------------

Chorus
that's the end? we need applause, you gotta clap, thanx very much, goodnight
---------------------------------

Radiohead Tabs @ Follow Me Around
www.followmearound.com


Ab Am Bb9 Bbadd6 Cm Dm Dm/C Em6 F# Fsus2 G Gm
variations - click chord images
Transpose chords:
Tuning:
Cool service:
View: Size:
A  A  A
Rating:
Layout:
  • Currently 3/5 Stars.
  • 1
  • 2
  • 3
  • 4
  • 5
 
Accuracy:
  • Currently 3.8/5 Stars.
  • 1
  • 2
  • 3
  • 4
  • 5
 
click stars to rate
Chordie recommends:
Check out JamPlay.com for online video guitar lessons
Songbook:
Login to add this song to your songbook
Support the artist
Preview/buy this song
MSN Music
Why this non-profit ad?

 
login to add comments/video/corrections