Motion picture soundtrack

Radiohead

 DGDCmaj7
 White wine, and sleeping pills,
 EmC
 Help me get back into your arms. 
 DGDCmaj7
 Cheap sex, and sad films,
 EmC
 Help me get where i belong. 
Em C C* G G/F#
I think you're cra___zy, may___be
Em C C* G G/F#
I think you're cra___zy, may___be
 DGDCmaj7
 Stop sending letters,
 EmC
 Letters always get burned
 DGDCmaj7
 Not like the movies,
 EmC
 They fed us on little white lies.
Em C C* G G/F#
I think you're cra___zy, may___be
Em C C* G G/F#
I think you're cra___zy, may___be
 B7EmD
     I will see you in,   in the next
-------------------------------
-------------------------------
------0-------0-------0--------
----0---0---0---0---0---0------
--4-------4-------3-------3--0-
-------------------------------

li____________________fe
 DGDCmaj7
 Beautiful angel
 EmC
 Pulled apart at birth 
 DGDCmaj7
 Limbless, and helpless
 EmC
 I can't even recognise you
Em C C* G G/F#
I think you're cra___zy, may___be
Em C C* G G/F#
I think you're cra___zy, may___be
Em C C* G G/F#
I think you're cra___zy, may___be
Em C C* G G/F#
I think you're cra___zy, may___be
 B7EmD
     I will see you in,   in the next
--------------------------------3-----
--------------------------------3-----
------0-------0-------0---------0-----
----0---0---0---0---0---0-------0-----
--4-------4-------3-------3--0--2-----
--------------------------------3-----

li____________________fe
Chords Used:
 EADGBEEADGBE
 D= ---230   G/F#= 2-0033

G= 320033 C= -3201-
Em= 022000 C*= -3203-
B7= 0212--  Cmaj7= -3200-
---

more complicated version:
from: Jason Roberts
 GC1C2
 White wine, and sleeping pills,
 EmC3C4C3
 Help me get back into your arms.  
 GC1C2
 Cheap sex, and sad films,
 EmC3C4C3
 Help me get where i belong. 
 EmCC5GG/F#
I think you're cra___zy,       may___be 
 EmCC5GG/F#
I think you're cra___zy,       may___be 
 GC1C2
 Stop sending letters,
 EmC3C4C3
 Letters always get burned  
 GC1C2
 Not like the movies,
 EmC3C4C3
 They fed us on little white lies.  
 EmCC5GG/F#
I think you're cra___zy,       may___be 
 EmCC5GG/F#
I think you're cra___zy,       may___be 
 B7EmC1
     I will see you in,   in the next
-------------------------------
-------------------------------
------0-------0-------0--------
----0---0---0---0---0---0------
--4-------4-------3-------3--0-
-------------------------------

li____________________fe
 GC1C2
 Beautiful angel
 EmC3C4C3
 Pulled apart at birth  
 GC1C2
 Limbless, and helpless
 EmC3C4C3
 I can't even recognise you  
 EmCC5GG/F#
I think you're cra___zy,       may___be 
 EmCC5GG/F#
I think you're cra___zy,       may___be 
 EmCC5GG/F#
I think you're cra___zy,       may___be 
 EmCC5GG/F#
I think you're cra___zy,       may___be 
 B7EmC1
     I will see you in,   in the next
--------------------------------3-----
--------------------------------3-----
------0-------0-------0---------0-----
----0---0---0---0---0---0-------0-----
--4-------4-------3-------3--0--2-----
--------------------------------3-----

li____________________fe
Chords Used:
 EADGBE
C1 = -30203
C2 = -30003
C3 = -32003
C4 = -32033
C5 = -32030
C = -32010
Em = 022000
G = 320033
G/F#= 2-0033
/\/\/\/\/\/\/\/\/\/\/\/\/\/\/\/\/\/\/\/\/\/\/\
+ Adrian Morse +
+ The Radiohead Guitar Archive @ No Alarms +
+ http://www.waterw.com/~amorse/radiohead/ +
+++++++++++++++++++++++++++++++++++++++++++

MOTION PICTURE SOUNDTRACK
transcription by Joey Gallagher - joeygallagher@hotmail.com
My last version was correct so I thought, but when I played this on the
guitar while listening to it something didn't sound right. I finally found
the problem, sneaky Thom tuned his guitar up (the same tuning is on Lift).
After re-tuning my guitar I was able to pinpoint the exact chord changes
more clearly. So I think I can say I'm done with updating this song, I'm as
close as I'm ever gonna get. (that's what I always say)
You have to tune your guitar up a 1/4 of a step, 1/4 step is only slightly
tuned up higher than it normally is. (this can be kind of tricky you might
need a digital tuner)
Chords Used
G- (3x0003)
CsusA- (x30203)
Csus2- (x30003)
Bmadd9- (x2x002)
Em- (022000)
C- (x32010)
Cadd9- (x32030)
G/D- (320033)
G/F#- (2x0233)
B7- (x21200)
C/A- (x30200)
(G) Bass note (hit top string on 3rd fret quickly)
(E) Bass note (hit the top string open quickly)
Intro G CsusA Csus2 Bmadd9 Csus2
Verse 1
 GCsusACsus2Bmadd9Csus2
 White wine, and sleeping pills, help me get back into your arms,
cheap sex, and sad films, help me get to where I belong,
Chorus 1
 GEmCCadd9EG/DG/F#
I think your craaaaaaaazy,          maybe 
 GEmCCadd9EG/DG/F#
I think your craaaaaaaazy,          maybe 
Verse 2 (same chords as verse 1)
Don't send them letters, letters always get burned,
It's not like the movies, they fed us all little white lies,
Chorus 2
 GEmCCadd9EG/DG/F#
I think your craaaaaaaazy,          maybe 
 GEmCCadd9EG/DG/F#
I think your craaaaaaaazy,          maybe 
 B7EmC/A
     I will see you in,   in the next
life-eeeeeeeeeeeeeeeeeeeeeee
e-------------------------------------------------------------------
B-------0-----0------------0------------------0-----0---------------
G-----0---0-----0--------0---0---0----------0---0---0---------------
D---2-------2----------2-------2---2------2-------2-----------------
A-4------------------3------------------3---------------------------
E-------------------------------------------------------------------

Verse 3 (same chords as verse 1)
Beautiful angel pulled apart at birth,
Limbless, and helpless, I can't even recognise you
Chorus 3
 GEmCCadd9EG/DG/F#
I think your craaaaaaaazy,          maybe 
 GEmCCadd9EG/DG/F#
I think your craaaaaaaazy,          maybe 
 GEmCCadd9EG/DG/F#
I think your craaaaaaaazy,          maybe 
 GEmCCadd9EG/DG/F#
I think your craaaaaaaazy,          maybe 
 B7EmC/A
     I will see you in,   in the next
life-eeeeeeeeeeeeeeeeeeeeeee
e-----------------------------------------3---------------------
B-------0-----0------------0--------------0-------------------
G-----0---0-----0--------0---0---0--------0----------------
D---2-------2----------2-------2---2------0-----------------
A-4------------------3--------------------x--------------------
E-----------------------------------------3-----------------------

(joeygallagher@hotmail.com)
---------------------------------

Radiohead Tabs @ Follow Me Around
www.followmearound.com


B7 Bmadd9 C C2 C3 C4 C5 Cadd9 Cmaj7 Csus2 CsusA D E Em G G/D G/F#
variations - click chord images
Transpose chords:
Tuning:
Cool service:
View: Size:
A  A  A
Rating:
Layout:
  • Currently 2.6/5 Stars.
  • 1
  • 2
  • 3
  • 4
  • 5
 
Accuracy:
  • Currently 2.9/5 Stars.
  • 1
  • 2
  • 3
  • 4
  • 5
 
click stars to rate
Chordie recommends:
Learn how to play guitar at JamPlay.com
Songbook:
Login to add this song to your songbook
Support the artist
Preview/buy this song
MSN Music
Why this non-profit ad?

 
login to add comments/video/corrections