Chordie logo
content loaded from cache

Exit  U2

----













1-------------------------|----------------------------|    


2-------------------------|----------------------------| 


3---<12>------------<12>--|------------<12>------------|    


4------------<7>----------|---<7>----------------<7>---|   


5-------------------------|----------------------------|   


6-------------------------|----------------------------|   



1------------------------|-----------------|------------------|                          


2------------------------|-----------------|------------------|                              


3------------------------|-----------------|------------------|                                              


4---7----------7b8r7---5-|--7---5------5---|--5p4h5---4---2---|                        


5------------------------|-----------------|------------------|                             


6---------0--------------|-----------------|------------------|                            









1---------------------|---------------------------------------|                          


2---------------------|---------------------------------------|                         


3---9--9--------------|--------------------9------------------|                       


4---------------------|--------------------------9----9-------|                      


5---------------------|---------------------------------------|                       


6----------0--0--0--0-|--0--0--0--0--0------------------------|                      




1---------------------------------------------------|


2---------------------------------------------------|


3--------------9-----------------------9------------|


4---------------------------------------------------|


5---7---7--------------7--7--7-------------------7--|


6---------------------------------------------------|

















1---------------------------------------------------|       


2---------------------------------------------------|


3---9--9--9--9--9--9--9--9--9--9--9--9--9--9--9--9--|   


4---------------------------------------------------|(for 8 


5---7--7--7--7--7--7--7--7--7--7--7--7--7--7--7--7--| bars) 


6---------------------------------------------------|    





1-----------------------------------------------------------                       


2---4/(7)/13------------------------------------------------                     


3---------------------------<12>----------------------------                    


4-----------------<12>------------------<7>---8p7---5---5---                     


5-----------------------------------------------------------                     


6-----------------------------------------------------------                     







1---------------------------------------|                   


2---------------------------------------|            


3---9--9--9--9--9--9--9--9--9--9--9--9--|(for 4 bars)       


4---------------------------------------|                


5---7--7--7--7--7--7--7--7--7--7--7--7--|                  


6---------------------------------------|                



1---------------------------------------|                   


2----------10--10--10-------------------|                


3---9--9-----------------9--9--9--9--9--|(for 3       


4----------7---7---10-------------------| bars)        


5---7--7-----------------7--7--7--7--7--|                


6---------------------------------------|                



1---------------------------------------|            


2---------------------------------------|              


3---9--9--9--9--9--9--9--9--9--9--9--9--| (for 8        


4---------------------------------------|  bars)      


5---7--7--7--7--7--7--7--7--7--7--7--7--|              


6---------------------------------------|               



1---7--7--7--7--7--7--7--7--7--7--7--7--7--7--7--7--|       


2---8--8--8--8--8--8--8--8--8--8--8--8--8--8--8--8--|      


3---9--9--9--9--9--9--9--9--9--9--9--9--9--9--9--9--|(for 3


4---------------------------------------------------| bars) 


5---7--7--7--7--7--7--7--7--7--7--7--7--7--7--7--7--|      


6---------------------------------------------------|       



1---10--10--10--10--10--10--10--10--10--10--10--10--10--10--10--10-|                 


2---8---8---8---8---8---8---8---8---8---8---8---8---8---8---8---8--|                   


3---7---7---7---7---7---7---7---7---7---7---7---7---7---7---7---7--|                       


4------------------------------------------------------------------|                        


5---7---7---7---7---7---7---7---7---7---7---7---7---7---7---7---7--|                      


6------------------------------------------------------------------|                            



1-------------------------------------------|               


2-------------------------------------------|              


3-----------------9---------9------------9--| (for 7 bars)  


4-------------------------------------------|              


5---------7------------7----------7---------|               


6---0---------------------------------------|
1---0------|
2---0------|
3---4------|  (depress trem bar slowly)
4---2------|
5----------|
6---0------|              

(quietly, over 12 bars)
1---------------------|----------|--------------------|
2---------------------|----------|--------------------|
3---------------------|----------|--------------------|
4------------(4)/7--5-|--------4-|------------8----5--|
5---------------------|----------|--------------------|
6---0--0--------------|--0--0----|--0--0--------------|    

Exit
----

tabbed by: Sergio Lucero, slucero@cec.uchile.cl
You k[Em]now he got the cure...but then he went astray,
He u[C]sed to stay awake to drive the d[G]reams he had away
He wa[Em]nted to believe in the h[C]ands of lov[G]e...
His head it felt heavy as he cut across the land
A dog started crying like a broken hearted man
At the howling wind... the howling wind
He went deeper into black, deeper into white...
he could see the stars shine like nails in the night
He felt the healing, healing, healing, healing hands of love
Like the stars shiny, shiny... from above.
He put his hands in the pocket, his finger on the steel
The pistol weighed heavy, his heart he could feel
Was beating, beating, beating, beating oh my love
Oh my love, oh my love, oh my love.
(He saw the hands that build could also pull down....
The hands of love)

Important: The song above is NOT stored on the Chordie server. The original song is hosted at flarere.free.fr. Chordie works as a search engine and provides on-the-fly formatting. Chordie does not index songs against artists/composers will. To remove this song please click here.

C Em G
variations - click chord images

Transpose chords

Tuning

Rating click stars to rate

Layout
Accuracy

Jango Player

SHARE PAGE  

You need to log in to post comments