Some Days Are Better Than Others

U2

---------------------------------

1----------------------------------------------------------

2----------------------------------------------------------

3----------------------------------------------------------

4----------------------------------------------------------

5---3/5---0---3---3---3---5--------------------------------

6-----------------------------------------------------0---0

1--------------------

2--------------------

3--------------------

4--------------------

5---3/5\-------3/12\-

6--------------------

1-------12---------14---------12---------10---9---7---5-10---

2---14--------14---------14---------14-----------------------

3------------------------------------------------------------

4------------------------------------------------------------

5------------------------------------------------------------

6------------------------------------------------------------

1-------------------------------------------------------

2---7b(8)---7------------------5---7b(8)---7b(8)---7----

3-------------------------7-----------------------------

4-------------------------------------------------------

5-------------------------------------------------------

6-------------------------------------------------------

1--------------------------------------------------------------

2------------5---7---7b(8)---7b(8)---7b(8)---5-----------------

3---7----------------------------------------------------7----5

4--------------------------------------------------------------

5--------------------------------------------------------------

6--------------------------------------------------------------

1------------------------------------------------------

2---7---8---7---8---7---8---7--------------------------

3-----------------------------------------------------8

4------------------------------------------------------

5------------------------------------------------------

6------------------------------------------------------

1---------------------------------------------------------

2---12b(14)------12b(14)---10-----------------------------

3--------------------------------------------------12---11

4---------------------------------------------------------

5---------------------------------------------------------

6---------------------------------------------------------


 --
 Leniart, Brandon K
leniarbk@jmu.edu






































variations - click chord images
Transpose chords:
Tuning:
Cool service:
View: Size:
A  A  A
Rating:
Layout:
  • Currently 0/5 Stars.
  • 1
  • 2
  • 3
  • 4
  • 5
 
Accuracy:
  • Currently 2/5 Stars.
  • 1
  • 2
  • 3
  • 4
  • 5
 
click stars to rate
Chordie recommends:
Learn how to play guitar at JamPlay.com
Songbook:
Login to add this song to your songbook
Support the artist
Preview/buy this song
MSN Music
Why this non-profit ad?

 
login to add comments/video/corrections