Chordie logo
content loaded from cache

I'll Be Back  Lennon/ McCartney

[Am]You know, if you bre[G]ak my heart I'll [FM7] go But I'll b[E]e back ag[A]ain
[Am]Cause I, told you on[G]ce before [FM7] goodbye But I cam[E]e back aga[A]in
I love you [F#m]so, I'm the on[Bm]e who wants you,yes I'm [E]the one who wants you
[D]Oh  [E]ho  [D]oh  [E]ho

Oh yo[Am]u, could find be[G]tter things to [FM7] do Than to bre[E]ak my heart ag[A]ain
This ti[Am]me, I will try [G]to show that [FM7] I Am not t[E]rying to prete[A]nd

[Bm]I thought that you would rea[C#m]lize, that if I[F#m] ran away from you
[B7]That you would want me[D] too, but I got a big surpri[E]se
[D]Oh  [E]ho  [D]oh  [E]ho

[A]I want to g[F#m]o, oh But I hate to le[Bm]ave you You know[E] I hate to leave you

[D]Oh  [E]ho  [D]oh  [E]ho
[D]Oh  [E]ho  [D]oh  [E]ho

[Am]You, if you bre[G]ak my heart I'll [FM7]go But I'll b[E]e back aga[A]in

Important: The song above is NOT stored on the Chordie server. The original song is hosted at getsome.org. Chordie works as a search engine and provides on-the-fly formatting. Chordie does not index songs against artists/composers will. To remove this song please click here.

A Am B7 Bm C#m D E F#m Fm7 G
variations - click chord images

Transpose chords

Tuning

Rating click stars to rate

Layout
Accuracy

SHARE PAGE  

You need to log in to post comments

All1Song (report video to admin):
Solo Acoustic Version
ERROR: If you can see this, then YouTube is down or you don't have Flash installed.

Ribzy (report)

intro, and whenever you see Bsus, try:
A
e|------- ------- ------- -------|------- ------- ------- ----0--|
B|-------------------------------|------------------------5---2--|
G|-------------------------------|--------------------4-------2--|
D|-------------------------------|----------------4-----------2--|
A|-------------------------------|----------------------------0--|
E|-------------------------------|-------------------------------|




e|0------ 0------ 0---0-- 0---0--|0------ 0------ 0---0-- 0---0--|
B|2-------2-------2---2---2---2--|2-------2-------2---2---2---1--|
G|2-------2-------2---2---2---2--|2-------2-------2---2---2---2--|
D|2-------2-------2---2---2---2--|2-------2-------2---2---2---2--|
A|0-------0-------0---0---0---0--|0-------0-------0---0---0---0--|
E|-------------------------------|-------------------------------|
You know
e|------- ------- ------- -------|------- ------- ------- ----0--|
B|-------------------------------|------------------------5---1--|
G|-------------------------------|--------------------4-------2--|
D|-------------------------------|----------------4-----------2--|
A|-------------------------------|----------------------------0--|
E|-------------------------------|-------------------------------|