Wanted Dead Or Alive

Bon Jovi

intro
e |------13---------12---------10--------8---|-----5-------4--------1-|
B |------------------------------------------|------------------------|
G |---14----14---12----12---10----10---9---9-|---5---5---4---4--4/2---|
D |-0----------0----------0----------0-------|-0-------0--------------|
A |------------------------------------------|------------------------|
E |------------------------------------------|------------------------|

Tab riff over chords
 Dadd9
 DmCDmCFGF
 CFDadd9

 DDsus4Dadd9D
It's all the same    
 Cadd9G
 only the names will change
 Cadd9GCFD
Everyday it seems we're wasting away
Another place where the faces are so cold
I'd drive all night
Just to get back home

chorus
 CGFDDadd9D
   I'm a cowboy, on a steel horse I ride     
 CGD
   I'm wanted dead or alive  
 CGD
   Wanted  dead or alive  

Sometimes I sleep, sometimes it's not for days
And people I meet always go their separate ways
Sometimes you tell the day
By the bottle that you drink
And times when you're all alone all you do is think

chorus - solo - chorus

I walk these streets, a loaded six string on my back
I play for keeps, 'cause I might not make it back
I been everywhere, still I'm standing tall
I've seen a million faces
And I've rocked them all

chorus
I'm a cowboy, I got the night on my side
I'm wanted dead or alive
Wanted dead or alive


C Cadd9 D Dadd9 Dm Dsus4 F G
variations - click chord images
Transpose chords:
Tuning:
Cool service:
View: Size:
A  A  A
Rating:
Layout:
  • Currently 2.8/5 Stars.
  • 1
  • 2
  • 3
  • 4
  • 5
 
Accuracy:
  • Currently 2.5/5 Stars.
  • 1
  • 2
  • 3
  • 4
  • 5
 
click stars to rate
Chordie recommends:
Learn to play this song & others via video guitar lessons at JamPlay.com
Songbook:
Login to add this song to your songbook
Support the artist
Preview/buy this song
MSN Music
Why this non-profit ad?

 
login to add comments/video/corrections

BlkDragon96 (report comment to admin):
e|------13---------12---------10--------8---|-----5-------4--------1-|

B|------------------------------------------|------------------------|
G|---14----14---12----12---10----10---9---9-|---5---5---4---4--4/2---|
D|-0----------0----------0----------0-------|-0-------0--------------|
A|------------------------------------------|------------------------|
E|------------------------------------------|------------------------|