Guitar Tabs, Chords and Lyrics


Moonage Daydream  David Bowie

(D 5th fret, F# 9th fret)
[D]              [N.C.]I'm an alligator,  
[F#]              [N.C.]I'm a mama-papa comin' for[B] you  
[A]I'm a space invader,[E] I'll be a rock 'n' rollin' bitch for [G]you
Keep your mouth shut,[D] you're sqauwkin' like a pink monkey [F#]bird
(E 1st fret)
and I'm busting up my brains for the [B]words   [A]      [E]  

chorus
     [G]Keep your '[Bm]lectric eye on [E]me babe
     [G]Put your [Bm]ray gun to my [E]head
     [G]Press your [D]space face close to [E]mine, love
(D 5th, E 7th fret)
     [D]   Freak out in a moonage daydream [E]oh! yeah!  

Don't fake it baby, lay the real thing on me
The church of man, love, is such a holy place to be
Make me baby, make me know you really care
Make me jump into the air

(repeat chorus)

BREAK
--------------------------------------------------
--------------------------------------------------
--7-6-7-6-7-6-7-6-7-4-----6-4-6-4-6-4-6-4-6-------
--------------------------------------------7-----
--------------------------------------------------
--------------------------------------------------

-------------------------------------------------- -------------------------------------------------- --4---4---4---4---4------------------------------- ----7---7---7---7---5-----4-4-4-4-4-4-4-4--------- -------------------------------------------------- -------------------------------------------------- #cutline# -------------------------------------------------- -------------------------------------------------- --6-6-6-6-6-6-6-6--------------------------------- -------------------------------------------------- -------------------------------------------------- --------------------------------------------------
-------------------------------------------------- -------------------------------------------------- --7-6-7-6-7-6-7-6-7-4-----6-4-6-4-6-4-6-4-6------- --------------------------------------------7----- -------------------------------------------------- --------------------------------------------------
-------------------------------------------------- -------------------------------------------------- --4---4---4---4---4------------------------------- ----7---7---7---7---5-----4-4-4-4-4-4-4-4--------- -------------------------------------------------- --------------------------------------------------
-------------------------------------------------- -------------------------------------------------- --6-6-6-6-6-6-6-6-7------------------------------- -------------------------------------------------- -------------------------------------------------- -------------------------------------------------- (hold the last D over the beginning of the chorus)

(repeat chorus 2x)

Outro
[Bm]    Freak out!  [A]    Far out!  [G]         [F#7]

Important: The song above is NOT stored on the Chordie server. The original song is hosted at getsome.org. Chordie works as a search engine and provides on-the-fly formatting. Chordie does not index songs against artists'/composers' will. To remove this song please click here.

Text color:
Chord color:
Chord grids: 
Font size:    
Page size: 

A B Bm D E F# F#7 G
variations - click chord images

Login - add to songbook

Transpose chords

Tuning

Rating click stars to rate

Layout
Accuracy

SHARE PAGE  




You need to log in to post comments