You Don't Know How It Feels

Tom Petty

 EAEA
 EAEA
 Let me run with you tonight, I'll take you on a moonlight ride
 EAEA
       
 EAEA
 There's someone I used to see, but she don't give a damn for me
 EAEA
       

CHORUS:
 EBEA
But let me get to the point, let's roll another joint
 EBEA
And turn the radio loud, I'm too alone to be proud
 EDA
 You don't know how it feels
 EDAE
 You don't know how it feels... to be me

 EDAEDA
        

People come, people go
Some grow young, some grow cold
I woke up
in between
Memory and a dream

CHORUS

My old man was born to rock
He's still tryin' to beat the
clock
Think of me what you will
I've got a little space to fill

CHORUS

BRIDGE:
E----------------------------------------------------------------
B----------------------------------------------------------------
G----------------------------------------------------------------
D---------------------0----------------------------0-------------
A-----------------2--------3------------------2--------3----0----
E-----0---2---4-------------------0----2---4---------------------



Corrected by tRANIS. View original
A B D E
variations - click chord images
Transpose chords:
Tuning:
Cool service:
View: Size:
A  A  A
Rating:
Layout:
  • Currently 2.8/5 Stars.
  • 1
  • 2
  • 3
  • 4
  • 5
 
Accuracy:
  • Currently 2.3/5 Stars.
  • 1
  • 2
  • 3
  • 4
  • 5
 
click stars to rate
Chordie recommends:
Learn to play this song & others via video guitar lessons at JamPlay.com
Songbook:
Login to add this song to your songbook
Support the artist
Preview/buy this song
MSN Music
Why this non-profit ad?

 
login to add comments/video/corrections

easwim7 (report comment to admin):
during the first two lines of the chorus, the progression should be:


But let me [E]get to the [B]point, let's [E]roll another [A]joint

And turn the [E]radio [B]loud, I'm too a[E]lone to be [A]proud

so basically, just change the first A to a B and you are set.
bcosentino (report comment to admin):
BRIDGE: (should be like this)


E----------------------------
B----------------------------
G----------------------------
D---------------0------------
A------------2-----4---------
E---0--3--4------------------