Guitar Tabs, Chords and Lyrics


Youre all ive got tonight   Smashing Pumpkins






song: You're all i've got Tonight
artist: The Smashing pumpkins
Tab by: Colin Elliott(zeroman)

 This tab is a little shaky but i think it is pretty close.  An
easy song to sing with.  Have some fun.

progression 1:
|------------------------------------------------------|
|------------------------------------------------------|
|-------------------------9----------------------------|
|-------------------------9-9--------------------7-8-9-|
|-------------------------7-9--------------------7-8-9-|
|---------------------------7--------------------5-6-7-|

            I dont care if you hurt me some more......




progression 2:
|----------------------------------|
|----------------------------------|
|----------------------------------|
|-5-X-5/7-7-7-7-7-7-7-7-7-7-7------|
|-5-X-5/7-7-7-7-7-7-7-7-7-7-7------|
|-3-X-3/5-5-5-5-5-5-5-5-5-5-5------|

	you're all i got tonight

	

	Just play around with these riffs and you'll have the song down.



To: OLGA - Submissions 


        You're All I've Got Tonight

Smashing Pumpkins
"Bullet With Butterfly Wings" -single  (only on Aeroplane flies high)

Performance Notes: Tune down 1/2 step. This is a cover of a Cars song, 
written by Ric Ocasek.

Chords: 
E5   x799xx
B5   799xxx
A5   577xxx   
AG5   355xxx

Enter Drums

Rhythm Figure 1     
Guitar 1 (doubled)  end rhy fig 1  

         E5 B5         A5 A|:              |               :|

Verse 1
with Rhy Fig 1 3 and half times.

I don't care if you hurt me some more.
I don't care if you even the score.

SEGNA
Pre-Chorus (Guitrs tacet)

1. Well, you can knock me, I don't care.
2. And you can make me. I don't care.
3. Well, you can pump me. I don't care.

1. And you can mock me. I don't care.
2. And you can fake me. I don't care.
3. And you can bump me. I don't care.

1. And you can rock me just 'bout anywhere.
2. And you can love me just 'bout anywhere.
3. And tou can love me just 'bout anywhere.

1,2,3. It's all right.
                (Ahhh.   --  Ahhhhhh.)

Chorus ( strum pattern   /   /   / / / / )

 G5                          A5             G5
|    'Cause you're all I've | got tonight  |    You're all I've | 

                                                    Go to Coda II
 A5               G5                    A5               A| got tonight    |     You're all I've | got tonight. I need you |

                                *2nd time to Coda I*|
1st time: Guitars tacet                             |
2nd time: w/fill 1              w/fill 1            |
|      tonight. |       I need | you      tonight   | 

2nd Verse
                                     A5 A| I don't care if you | use me again           |                   |

                                                      A5 A|             | I don't care if you a-|-buse me again.          |

                       Del Segna al Coda|
 w/fill 1     E5 B5                     |
|                   |                   |


CODA I
                                                       Full
 Guitar 2 ( w/tone control at zero)                    |----
e----------------------------||------------------------|----)--------|
b----------------------------||------------------------|-----)-------|
g----------------------------||------------------------|------)------|
d--------------9-------------||------------------------|-------)-----|
a-------------------------13h||14/\/\/\/\/\--12--14--14---------(14)-|
e--------------------9/------||--------------------------------------|

                                                 full             1/2
e-------------------------|----------------------------------------|---)----|
b-------------------------|----------------------------------------|---)----|
g-------------------------|----------------------------------------|---)----|
d-------------------------|----------------------)/\/\/\/\/\------)|---)----|
a-12h14--12/\/\/\/\-(12)\-|------10/\/\/\/\--9h10------------10h12-|---(12)-|
e-------------------------|----------------------------------------|--------|

        1+ 1/2                                    1
e---------------)---------------|---------------------)-------------|
b---------------)---------------|---------------------)-------------|
g---------------)---------------|---------------------)-------------|
d---------------)---------------|-----------------)---)-------------|
a-10----)-------)---------------|------------10h12----(12)--10-9h10/|
e-----12--------(12)----10/\/\/\|/\/\--10h12------------------------|
                                                  
                                       ------------       
                                      ) 2         (
                             ---------             -------
                            ) 1+ 1/2                1+ 1/2 
                         --- 
                         1
e--------------------------------|--------------------------------|-------|
b--------------------------------|--------------------------------|-------|
g-----------------------)--------|--------------------------------|-------|
d----------------------)---------|--------------------------------|-------|
a/14/\/\/\/\/\--(14)/17----------|---(17)-----17----------(17)/\/\|-(17)\-|
e--------------------------------|--------------------------------|-------|

|             |                 ||

3rd Verse - Guitars tacet

I don't wanna feel sorry for you.
You don't have to make belive it's you.

        Del Segna al Coda II

CODA II

 w/Rhy fig 1 |                tonight |        I need | you        tonight    I need |  

 w/fill 1                         w/fill 1
|you     tonight |     I, I need | you        tonight. ||


 Fill 1
   tr/\/\/\/\/\/\/\/\/\/\/\/\
e--------------------------------|
b--------------------------------|
g--7--(8)------------------------|
d--------------------------------|
a--------------------------------|
e--------------------------------|


Written out by The Loan Arranger  c9609436@alinga.newcastle.edu.au
3/5/97


Important: The song above is NOT stored on the Chordie server. The original song is hosted at getsome.org. Chordie works as a search engine and provides on-the-fly formatting. Chordie does not index songs against artists/composers will. To remove this song please click here.

This song is displayed as text-only. Transposing and tuning is only available for chordpro-songs.

Login - add to songbook

Rating click stars to rate

Layout
Accuracy

SHARE PAGE  




You need to log in to post comments