Guitar Tabs, Chords and Lyrics


Corazon de oro  Misc

[For cbord formations, see tablature below] 
[C] It's over be[G]fore it starts
[E] Oh [D]don't you know
[C] So on your [G]marks, stand by[E]
[D] Ready, go
e|-3---3---3---3-------3---3---3-------|
B|---3---3---3---3-------3---3---3-3---|
G|-------------------------------------|

From London to New York, Montreal to Tokyo
I see visions of her everywhere I go
[E] What have [A]I become
[E] Now that [A]I'm alone
[G] I'm just [B]looking for a [E]way to break through th[C]ese walls and
[G] I'm just [B]looking for a [E]place that I can [C]call my home and
[G] Is anybody [B]out there[E] got a [C]soul
'Cuz [G]I'm just [B]looking for [C]the girl...
The [C]girl with a [D]heart of [G]gold
[C] She always ??? [G]once ??? account with her[E]... [D]champagne taste
She goes[C] straight down the [G]rathole with her[E]... total [D]recklessness and
[C] Tomorrow will [G]come on through and [E]I got nothing but a [D]???
[C] Nothing but a [G]silhouette girl[E], met her in [D]darkness I say
[E] What have [A]I become
[E] Now that [A]I'm alone
[G] I'm just [B]looking for a [E]way to break through th[C]ese walls and
[G] I'm just [B]looking for a [E]place that I can [C]call my home and
[G] Is anybody [B]out there[E] got a [C]soul?
'Cuz [G]I'm just [B]looking for [C]the girl...
The [C]girl with a [D]heart of [G]gold
I said [G]I'm just [B]looking for [C]the girl...
The [C]girl with a [D]heart of [G]gold
BREAK:
       [Em]                        [A]                                                    
   e|--7--7--7--7--7--7--7--7--5-5-5-5-5-5-5-5--|
   B|--8--8--8--8--8--8--8--8--5-5-5-5-5-5-5-5--|
   G|--9--9--9--9--9--9--9--9--6-6-6-6-6-6-6-6--|
   D|--9--9--9--9--9--9--9--9--7-7-7-7-7-7-7-7--|
   A|--7--7--7--7--7--7--7--7--7-7-7-7-7-7-7-7--|
   E|--------------------------5-5-5-5-5-5-5-5--|

Yeah [G]I'm in the corner [B]I start over, I [E]start the whole slate [C]clean
[G]All the pain and heartache in [B]all my years, [E]I was always to [C]blame
And I [G]dream of this girl yeah an ang[B]elical ghost, like [E]magic in my neighbor[C]hood
I'm a [G]downtown [B]member in the [C]slow line ???
[C]Don't let me [D]be misunder[G]stood
Oh, I'm a [G]downtown [B]member in the [C]slow line ???
[C]Don't let me [D]be misunder[G]stood
Heart of gold!!!
SOLO:
E|--/12/10/12-12-12-12-15-12-\5-5-5-5-8-5-5-5-5-5-8-5-----|
B|--/12/10/12-12-12-12-12-12-\5-5-5-5-5-5-5-5-5-------8-5-|
G|--7-5-7^8-7-5-------|
D|--------------7-----|

[repeat a few times, tberes only a little bit of difference in eacb repetition] 
BREAK(w/solo)
[G] I'm just [B]looking for a [E]way to break through th[C]ese walls and
[G] I'm just [B]looking for a [E]place that I can [C]call my home and
[G] Is anybody [B]out there[E] got a [C]soul?
'Cuz [G]I'm just [B]looking for [C]the girl...
The [C]girl with a [D]heart of [G]gold
I said [G]I'm just [B]looking for [C]the girl...
The [C]girl with a [D]heart of [G]gold
_____________________________________________________________________________
CORAZON DE ORO
(Tablature)
Intro (Let chords ring)
          [x2]                [x4]               [x2] 
-----3--4-----|--3---3---3---3----|--0---5------------
--5--3--5--7--|----3---3---3---3--|--0---5------------
--5--4--4--7--|-------------------|--1---6------------
--5--5--6--7--|-------------------|--2---7------------
--3--5-----5--|-------------------|--2---7------------
-----3--------|-------------------|--0---5------------

  [C]   [G]   [E]   [D]   Verse1               [x4]
--3-----7-----7------8---
--3-----7-----8------8---
--4-----8-----9------9---
--5-----9-----9------10--
--5-----9-----7------10--
--3-----7------------8---

  [G]      [B]      [E]       [C]  Chorus                         [x1]
--3-----------------------3--------
--3---4---5-------5---7---3--------
--4---4---5-------5---7---4--------
--5---4---5-------5---7---5--------
--5---2---3-------3---5---5--------
--3-----------------------3--------

  [G]    [B]    [C]        [C]    [D]    [G]  Verse2           [x4]
--3----3----0----7---|--0--5-
--5----3----0----7---|--0--5-
--5----4----1----7---|--1--6-
--5----5----2----7---|--2--7-
--3----5----2----5---|--2--7-
-------3----0--------|--0--5-

Ve[C]rse 3[G] [E] [D] [E] [A]
                  [x1]           [x3] 
--10---7----7-----8---|--3--7--7--8--
--12---7----8-----8---|--3--7--8--8--
--12---8----9-----9---|--4--8--9--9--
--12---9----9-----10--|--5--9--9--10-
--10---9----7-----10--|--5--9--7--10-
-------7----------8---|--3--7-----8--

  [G]     [B]     [E]      [C]       [G]   [B]   [E]   [C]  Break
--7--5---
--8--5---
--9--6---
--9--7---
--7--7---
-----5---

  [E]   [A]  Solo (repeat a few times, theres only a little bit of difference
in each repetition)
E--/12/10/12-12-12-12-15-12-\5-5-5-5-8-5-5-5-5-5-8-5-----
B--/12/10/12-12-12-12-12-12-\5-5-5-5-5-5-5-5-5-------8-5-
G--7-5-7^8-7-5-------
D--------------7-----

Song Order
Intro      [x1]
Verse1     [x1]
Chorus     [x1]
Verse2     [x1]
Verse1     [x1]
Chorus     [x2]
Break      [x1]
Verse2     [x1]
Chorus     [x2]
Solo       [x3]
Solo+Break [x1]
Verse1     [x1]
Chorus     [x2]
:---------------------------------------------------:

|Corrections/additional transcriptions are welcome. |
|Send them to: 'punk.tabs@usa.net' |
:---------------------------------------------------:

|Transcribed by Jarvis |
|Most of the lyrics figured out by 'Funky Jane' |
:---------------------------------------------------:

|The Complete Rancid Guitar Tab Compilation |
|(http://hem1.passagen.se/ak5/rancid/) |
:---------------------------------------------------:


Important: The song above is NOT stored on the Chordie server. The original song is hosted at hem.passagen.se. Chordie works as a search engine and provides on-the-fly formatting. Chordie does not index songs against artists'/composers' will. To remove this song please click here.

Text color:
Chord color:
Chord grids: 
Font size:    
Page size: 

A B C D E Em G
variations - click chord images

Login - add to songbook

Transpose chords

Tuning

Rating click stars to rate

Layout
Accuracy

SHARE PAGE  




You need to log in to post comments