Too Far Gone

Neil Young

Intro:
 GD
  E|-------|-------------------|---------2----------|
  B|--0-1--|--1h3---3---1-0----|--3------3---3---0--|
  G|-------|--0---0---0-0-0-0--|--0h2--2-2---2-2-0--|
  D|-------|----------------0--|--0----0-------0----|
  A|-------|-------------------|--------------------|
  E|-------|-------------------|--------------------|

 CG
  E|-------------------|------3-3---3------|
  B|--0h1---1---0------|------0-0---0-0-1--|
  G|--0---0---0-0-0----|------0-0---0------|
  D|----------------0--|------0-0---0------|
  A|-------------------|------2------------|
  E|-------------------|--3---3---3--------|

 GD
  E|-------------------|---------2------------|
  B|--1h3---3---1-0----|--3------3-3----------|
  G|--0---0---0-0-0-0--|--0h2--2-2-2h4-2-0----|
  D|----------------0--|--0----0---0-------0--|
  A|-------------------|----------------------|
  E|-------------------|----------------------|

C G (strum...)
  E|--------3---------3--|------------------|
  B|------1-1-----1---1--|------------------|
  G|------0-0-----0---0--|------------------|
  D|--0h2-2-2---0-0h2----|------------------|
  A|------3--------------|------------------|
  E|---------------------|--3---------------|


Verse:
 GD
  When I woke up you were gone
 CG
  And the sun was on the lawn
 GD
  Empty pillow with perfume on
 CG
  I smelled it.
 GD
  Well, we met in my favorite bar
 CG
  Took a ride in my old car
 GD
  But I still don't know how
 CG
  We made it home.
Chorus:
 GD
  Was I too far gone
 CG
  Too far gone
 GD
  Too far gone
 CG
  For you.
Instrumental:
Chords and backing as intro, but with slight variations.
Verse:
We had drugs and we had booze
But we still had something to lose
And by dawn I wanted
To marry you.
With our attitudes by day
And our secret dreams by night
Can we really live our lives
That way.
Chorus:
Am I too far gone
Too far gone
Too far gone
For you.
Was I too far gone
Too far gone
Too far gone
C (rest)
  E|--3-------------|-------3--------|
  B|--1------1-0----|------0---------|
  G|--0----------2--|-----0----------|
  D|--2-------------|----0-----------|
  A|--3-------------|---2------------|
  E|----------------|--3-------------|

For you.


Corrected by ryser2k. View original
C D G
variations - click chord images
Transpose chords:
Tuning:
Cool service:
View: Size:
A  A  A
Rating:
Layout:
  • Currently 0/5 Stars.
  • 1
  • 2
  • 3
  • 4
  • 5
 
Accuracy:
  • Currently 0/5 Stars.
  • 1
  • 2
  • 3
  • 4
  • 5
 
click stars to rate
Chordie recommends:
Learn to play guitar with video-based, online guitar lessons at JamPlay.com
Songbook:
Login to add this song to your songbook
Support the artist
Preview/buy this song
MSN Music
Why this non-profit ad?

 
login to add comments/video/corrections