Guitar Tabs, Chords and Lyrics


Brother   Various Artists


Song: Brother
Band: Alice in Chains
Album: Sap
Tabbed by: Matthew Giron (cmithel@visi.net)


-0--0--0-0-0-0--0-0---0-0-----------------------------------------------------
-2--2--2-2-2-2--3-3/5-3-2-----------------------------------------------------
-2--2--2-2-2-2--0-0---0-0-----------------------------------------------------
-2--2--2-2-2-2--3-3/5-3-2-----------------------------------------------------
-0--0--0-0-0-0----------------------------------------------------------------
------------------------------------------------------------------------------
 riff 1                                                                       

-1-1--1-1-1--0-0-0-0--0-0-0-0---1-1--1-1-1--3-3--3-3-3------------------------
-1-1--1-1-1--2-2-3-3--2-2-3-3---1-1--1-1-1--3-3--3-3-3------------------------
-2-2--2-2-2--2-2-2-2--2-2-2-2---2-2--2-2-2--0-0--0-0-0------------------------
-3-3--3-3-3--2-2-2-2--2-2-2-2---3-3--3-3-3--0-0--0-0-0------------------------
-3-3--3-3-3--0-0-0-0--0-0-0-0---3-3--3-3-3--2-2--2-2-2------------------------
-1-1--1-1-1---------------------1-1--1-1-1--3-3--3-3-3------------------------
 riff 2                                                                       

------------------------------------------------------------------------------
------------------5b6r5------------------------------5b6r5--------------------
-------------------------6b7r6------------------------------6b7r6-------------
------------------------------------------------------------------------------
-------3--5--5/7----------------------3--5--5/7--10---------------------------
-3--5---------------------------3--5------------------------------------------
 riff 3                                                                       

------------------------------------------------------------------------------
------------------5b6r5--------------------------5b6r5---------10b11r10-------
-------------------------6b7r6--------------------------6b7r6-----------------
------------------------------------------------------------------------------
-------3--5--5/7----------------------3--5--5/7-------------------------------
-3--5---------------------------3--5------------------------------------------


Important: The song above is NOT stored on the Chordie server. The original song is hosted at members.tripod.com. Chordie works as a search engine and provides on-the-fly formatting. Chordie does not index songs against artists'/composers' will. To remove this song please click here.

This song is displayed as text-only. Transposing and tuning is only available for chordpro-songs.

Login - add to songbook

Rating click stars to rate

Layout
Accuracy

SHARE PAGE  




You need to log in to post comments