Guitar Tabs, Chords and Lyrics


Down in a Hole   Various Artists


Song: Down in a Hole
Band: Alice in Chains
Album: Dirt (1992)
Tabbed by: Matthew Giron (cmitchell@visi.net)


-----------------3-----2------------------------------------------------------
-0h1-------1-------3-------3--------------------------------------------------
-----2-------2-------2-------2------------------------------------------------
-------2-------2---------------0----------------------------------------------
---------0--------------------------------------------------------------------
------------------------------------------------------------------------------
 riff 1                                                                       

-----------------------3--3-----2---------------------------------------------
-----------------------3-----3--3---------------------------------------------
-----------------------0--------2---------------------------------------------
-9---10--9---7---------0--------0---------------------------------------------
-0---0---0---0---------2--------0---------------------------------------------
-----------------------3------------------------------------------------------
 riff 2     (first part of chorus)                                            

-----------------------0--0-------0-------------------------------------------
-----------------------1----1--3----3-----------------------------------------
-9---10--9---7---------0-------0------0---------------------------------------
-----------------------2-------0----------------------------------------------
-----------------------3-------2----------------------------------------------
-------------------------------3----------------------------------------------
 riff 3     (second part of chorus)                                           

------------------------------------------------------------------------------
-3----------------------------------------------------------------------------
-2--------------5-5-----5--5------3-3--------2--------------------------------
-0-----2---3----5-5-----5--5--5-5-3-3--3-3---2--------------------------------
-0-----2---3----3-3-----3--3--5-5-1-1--3-3---0--------------------------------
-------0---1------------------3-3------1-1------------------------------------
 riff 4                                                                       

-0----------------------------------------------------------------------------
-2----------------------------------------------------------------------------
-2----------------------------------------------------------------------------
-2----------------------------------------------------------------------------
-0----------------------------------------------------------------------------
------------------------------------------------------------------------------
 end on A



Important: The song above is NOT stored on the Chordie server. The original song is hosted at members.tripod.com. Chordie works as a search engine and provides on-the-fly formatting. Chordie does not index songs against artists'/composers' will. To remove this song please click here.

This song is displayed as text-only. Transposing and tuning is only available for chordpro-songs.

Login - add to songbook

Rating click stars to rate

Layout
Accuracy

SHARE PAGE  




You need to log in to post comments