Guitar Tabs, Chords and Lyrics


Day Tripper   Various Artists


Song: Day Tripper
Band: The Beatles
Album: The Red Album (1962-1966)
Tabbed by: NecrometaL (creepstar@rocketmail.com)


standard tuning

/ = slide up
\ = slide down
h = hammer on
b = bend
p = pull off
p.m.= palm mute

^ = bend up and bring back down

INTRO:   (clean tone w/ compression)    

        this line below is played twice 
-----------------------------------------------------------------------------
-----------------------------------------------------------------------------
-----------------------------------------------------------------------------
--------------2--O---------4-----O--2--------------2--O--------4-----O--2----
------------2-----------2------2-----------------2-----------2-----2---------
--O----3--4----------------------------O----3--4-----------------------------

then this is played, and this is still the intro.

--O---O-----O--O----O------O--O------O------O--O-----------------------------
--O---O-----3--O----O------3--O------3------O--3-----------------------------
--4---4-----4--4----4------4--4------4------4--4-----------------------------
--2---2--------------------------------------------O--------4------O--2------
----------------------------------------------------------2------2-----------
-------------------------------------------------------------------------O---

-----------------------------------------------------------------------------
-----------------------------------------------------------------------------
-----------------------------------------------------------------------------
--------2--O--------4-----O--2-----------------------------------------------
------2-----------2-----2----------------------------------------------------
-3--4------------------------------------------------------------------------

VERSE:

-----------------------------------------------------------------------------
-----------------------------------------------------------------------------
-----------------------------------------------------------------------------
--------------2--O---------4-----O--2--------------2--O--------4-----O--2----
------------2-----------2------2-----------------2-----------2-----2---------
--O----3--4----------------------------O----3--4-----------------------------

-----------------------------------------------------------------------------
-----------------------------------------------------------------------------
--------------2--O---------4-----O--2----------------------------------------
------------2-----------2------2-------------------2--O--------4-----O--2----
--O----3--4--------------------------------------2-----------2-----2---------
---------------------------------------O----3--4-----------------------------

CHORUS:

-----------------------------------------------------------------------------
-----------------------------------------------------------------------------
-----------------------------------------------------------------------------
-----------------------------------------------------------------------------
--4---------------------4-----------4----4---------4----------------------4--
--2--2--2--2--2--2--2---2--2--2--2--o/2--2--2--2---2---2--2----2----2-----2--

-----------------------------------------------------------------------------
-----------------------------------------------------------------------------
-----------------------------------------------------------------------------
-----------------------------------------------------------------------------
4--4-----4-------4--4--------------------4--4-------------4\O----------------
2--2--2--o/2--2--2--2-----o/2----2--2----2--2---O/2--2---------2--2---2------

-----------------------------------------------------------------------------
-----------------------------------------------------------------------------
-----------------------------------------------------------------------------
----------------------------------------------------------------------4/6----
------------------------/7----7--7--7--7--7--5----6----6--6--6--6--6--2/4----
----O---o/2----2----2--2/5----5--5--5--5--5--3----4----4--4--4--4--4---------

-----------------------------------------------------------------------------
----------------------------4------4-----------------------------------------
---------------6\-------4---4------4-----------------------------------------
6--6--6-----6--6\--4----4-------4--4---4-------------------------------------
4-----4-----4------2------------2-----------------7--------------6------6--6-
---------4--------------------------------/5---5-----5---3/5--O--4------4--4-

-----------------------------------------------------------------------------
-----------------------------------------------------------------------------
-----------------------------------------------------------------------------
-----------------------------------------------------------------------------
---6--8/11----11-------------------------9--9-----9--------------------------
---4--6/9-----9--------------9---7--9/11-------7-----------------------------

-----------------------------------------------------------------------------
-----------------------------------------------------------------------------
-----------------------------------------------------------------------------
--------------2--O---------4-----O--2--------------2--O--------4-----O--2----
------------2-----------2------2-----------------2-----------2-----2---------
--O----3--4----------------------------O----3--4-----------------------------

INTERLUDE:

-----------------------------------------------------------------------------
-------------------------------------------------------------2---------------
-----------------------4-------------------4---2-----------------------2/4---
--4--------------------4---------------4------------------4----------4-------
--2-----X--------------2---------5/6-----------------------------------------
-----------------------------------------------------------------------------

-----------------------------------------------------------------------------
-----------------------------------------------------------------------------
-----------------------------------------------------------------------------
-----------------------------------------------------------------------------
----------9---9---9---9-------------2---------------------4------------------
-----7----7---7---7---7---O--------------------------------------------------

-----------------------------------------------------------------------------                
-------------------------------2--------------------------------------------2
----4------------4--2-------------------2/4-----4------------4--2------------
----4----------4-------------4-------4----------4----------4-------------4---
----2------5/6----------------------------------2------5/6-------------------
-----------------------------------------------------------------------------

-----------------------------------------------------------------------------
-----------------------------------------------------------------------------
-------2/4-------------------------------------------------------------------
----4---------------1-------------------2-------------4-------4-----------6--
-----------------------------------------------------------------------------
-----------------------------------------------------------------------------

-----------------------------------------------------------------------------
--------------------------------------1O---------------------12------12------
---------------7b^->-7b-----7--9b--------------9b^->-9b----------------------
----9------9-------------9---------------------------------------------------
-----------------------------------------------------------------------------
-----------------------------------------------------------------------------

--1O-------1O--12------------------------------------------------------------
-------12--------------------------------------------------------------2-----
-------------------------------------------------4---------------------------
--------------------------7--------------4-----------------------------------
-----------------------------------------------------------------------------
-----------------------------------------------------------------------------
                      p.m....................................................
-----------------------------------------------------------------------------
---------O------4-----------------------------------------O------------------
----------------4------------------------------------------------------------
----------------4-----4---4---4--4---4--4--4--4--4--4--4-----4--4--4--4--4--4
----------------2-----2---2---2--2---2--2--2--2--2--2--2-----2--2--2--2--2--2
-----------------------------------------------------------------------------
....         p.m............................................................. 
-----------------------------------------------------------------------------
-----------------------------------------------------------------------------
-----4-----------------------------------4-----------4------4--4--4--4--4--4-
--4----------4----4--4--4--4--4--4---4---4--4--4--4--4--4---4--4--4--4--4--4-
--2----------2----2--2--2--2--2--2---2------2--2--2-----2---2--2--2--2--2--2-
-----------------------------------------------------------------------------
..
-------12b--12b^->-12b--1O-------------------2---------2--------2---------2--
----------------------------12---------------O---------O--------O---------O--
-4-------------------------------------------4---------4--------4---------4--
-4---------------------------------------------------------------------------
-4---------------------------------------------------------------------------
-2---------------------------------------------------------------------------

-----------------------------------------------------------------------------
-------O--4--------O-----O----O--O--5-------------O------O--7----------------
-----------------------------------------------------------------------------
-----------------------------------------------------------------------------
-----------------------------------------------------------------------------
-----------------------------------------------------------------------------


-----------------------------------------------------------------------------
-----------------------------------------------------------------------------
-----------------------------------------------------------------------------
--------------2--O---------4-----O--2--------------2--O--------4-----O--2----
------------2-----------2------2-----------------2-----------2-----2---------
--O----3--4----------------------------O----3--4-----------------------------


-----------------------------------------------------------------------------
-----------4---4-------------------------------------------------------------
-----------4---4-------------------------------------------------------------
-----4-----4---4---4---4------------------------2--O--------4-----O--2-------
-----2-----2---2---2---2---2---2--------------2-----------2-----2------------
------------------------------------O----3--4--------------------------------


-----------------------------------------------------------------------------
-----------------------------------------------------------------------------
--------------------------------O--------------------------------------------
--------------------7---7-----------------------2--O--------4-----O--2-------
--------------------9---9---------------------2-----------2-----2------------
-----7----9/11------7---7---7\------O----3--4--------------------------------

OUTRO:

-----------------------------------------------------------------------------
-----------------------------------------------------------------------------
-----------------------------------------------------------------------------
--------------2--O---------4-----O--2--------------2--O--------4-----O--2----
------------2-----------2------2-----------------2-----------2-----2---------
--O----3--4----------------------------O----3--4-----------------------------

-----------------------------------------------------------------------------
-----------------------------------------------------------------------------
-----------------------------------------------------------------------------
--------------2--O---------4-----O--2--------------2--O--------4-----O--2----
------------2-----------2------2-----------------2-----------2-----2---------
--O----3--4----------------------------O----3--4-----------------------------

-----------------------------------------------------------------------------
-----------------------------------------------------------------------------
-----------------------------------------------------------------------------
--------------2--O---------4-----O--2--------------2--O--------4-----O--2----
------------2-----------2------2-----------------2-----------2-----2---------
--O----3--4----------------------------O----3--4-----------------------------

-----------------------------------------------------------------------------
-----------------------------------------------------------------------------
-----------------------------------------------------------------------------
--------------2--O---------4-----O--2--------------2--O--------4-----O--2----
------------2-----------2------2-----------------2-----------2-----2---------
--O----3--4----------------------------O----3--4-----------------------------

-----------------------------------------------------------------------------
-----------------------------------------------------------------------------
-----------------------------------------------------------------------------
--------------2--O---------4-----O--2--------------2--O--------4-----O--2----
------------2-----------2------2-----------------2-----------2-----2---------
--O----3--4----------------------------O----3--4-----------------------------

And then it fades out....phew! And that's about it. I hope you trust me on it 


Important: The song above is NOT stored on the Chordie server. The original song is hosted at members.tripod.com. Chordie works as a search engine and provides on-the-fly formatting. Chordie does not index songs against artists'/composers' will. To remove this song please click here.

This song is displayed as text-only. Transposing and tuning is only available for chordpro-songs.

Login - add to songbook

Rating click stars to rate

Layout
Accuracy

SHARE PAGE  




You need to log in to post comments