Guitar Tabs, Chords and Lyrics


Brick   Various Artists


Song: Brick
Band: Ben Folds Five
Album: Whatever and Ever Amen (1997)
Tabbed by: jKWAKE  (kwekelj@river.it.gvsu.edu)
Tuning: Standard


I know this song is played mostly with a piano but i 
figured it out for guitar and it sounds pretty good.
I've played it on piano and it sounds better.

e|--2-----2-----0---0-----0--------|
b|------3-----3---3-----3-----3----|
g|----2-----2---------0-----0---0--| X4
d|--0-----0------------------------|
a|---------------------------------|
E|------------------3-----3--------|

then...

e|--2------2------0----0-------0-----0---|
b|------3-------3---3--------0-----0---3-|
g|----2-------2------------1-----1-------|
d|---------------------------------------|
a|--2------2-----------------------------|
E|---------------------0-----------------|

then the top part again, not real sure about the
order...

then a couple arpeggios on these for a part...

e|-----2-----3-----
b|----3-----3-----
g|---4-----0-------    and the chorus is 
d|--4-----0--------    just G A D   i think...
a|-2-----2----------
E|------3---------

great tune!



Important: The song above is NOT stored on the Chordie server. The original song is hosted at members.tripod.com. Chordie works as a search engine and provides on-the-fly formatting. Chordie does not index songs against artists'/composers' will. To remove this song please click here.

This song is displayed as text-only. Transposing and tuning is only available for chordpro-songs.

Login - add to songbook

Rating click stars to rate

Layout
Accuracy

SHARE PAGE  




You need to log in to post comments