Guitar Tabs, Chords and Lyrics


Fire, Water, Burn   Various Artists


Song: Fire Water Burn
Band: The Bloodhound Gang
Tabbed by: kurt1cobain@hotmail.com

(#)= palm muted or muffeled

ORDER=fig A x5, fig B, fig C x4, fig G, fig A x3, fig E, fig F x3,
fig E, fig C x4, fig G, fig C x3, fig F x6, fig E, fig C x4, fig G,
fig C x6, fig A x4, fig C (till end); 


Fig A     Fig B      Fig C             Fig D

Clean     Clean      Dist              Clean
E-3------|-2--------|-----------------|------------------|
B--------|-3--1-----|-----------------|------------------|
G--------|-2--------|---------(1)-----|----5--(0)--5--4--|
D----2---|----2-----|-(5)-(9)-(2)--9--|-7--5--(0)--5--4--|
A-2--2---|----3-----|-(5)-(9)-(2)--9--|-7--3--(0)--3--2--|
E-3------|----------|-(3)-(7)-(0)--7--|-5----------------|
 x6  x6   x4 x4       x6  x2  x6  x8       x4 x4     (number of times the chord is hit)


Fig E               Fig F       Fig G

 Dist               Dist        Dist
E------------------|-----------|-----------|
B------------------|-----------|-----------|
G----5--(0)--5--4--|------(1)--|-(7)-(5)---|
D-7--5--(0)--5--4--|-(5)--(2)--|-(7)-(5)---|
A-7--3--(0)--3--2--|-(5)--(2)--|-(5)-(3)---|
E-5----------------|-(3)--(0)--|-----------|


Important: The song above is NOT stored on the Chordie server. The original song is hosted at members.tripod.com. Chordie works as a search engine and provides on-the-fly formatting. Chordie does not index songs against artists'/composers' will. To remove this song please click here.

This song is displayed as text-only. Transposing and tuning is only available for chordpro-songs.

Login - add to songbook

Rating click stars to rate

Layout
Accuracy

SHARE PAGE  




You need to log in to post comments