Swallowed

Various Artists

 AbDbF5
E|---------------------------------------------------------
B|---------------------------------------------------------
G|----5-------x-----6--------6--------------------10-------
D|----6-------x-----6-----------6-------------10-----10----
A|----6-------x-----4----4-----------------8---------------
E|----4-------x-----x----------------6/8-------------------
    1  Warm      sun--------            feed me up and
            Loathing---------     for a ---change ---and   


 Ab5Db5C5F5
E|------------------x---x-----------------------------------
B|------------------x---x-----------------------------------
G|-10------10-------x---6------6----------------------------
D|-----10--10-------6---6---------6------------10---10-0----
A|----------8-------6---4--4-----------------10----8--------
E|----------x-------4---x---------------6/8-----------------
        i'm              le---rry------------loaded ----up
               I--- slip some ------ boiled-------- away                    

*(listen to song for strumming pattern)
*CHORUS
 AbC
E|---------------------------------3-------------------------
B|---------------------------------5-------------------------
G|---5-----------------------------5-------------------------
D|---6-----------------------------5-------------------------
A|---6-----------------------------3-------------------------
E|---4-----------------------------x-------------------------


Swallowed Followed

Swallowed Sarrowed

 DbBb
E|----------------------------------------------------------
B|------x------------------------------x--------------------
G|------6------------------------------3--------------------
D|------6------------------------------3--------------------
A|------4------------------------------1--------------------
E|------x------------------------------x--------------------


Heavy bout everythin but my love
                   Im with everyone and yet not---------


 Ab5C
Im with every one and yet not

 Ab5C
Im with every one and yet not

E|--------------------------------------------------------
B|--------------------------------------------------------
G|--------------------------------------------------------
D|--------------------------------------------------------
A|---------------------4---4---4---4----------------------
E|---4---4---4---4---------------------6/8--8---8--8------
E|----------------------------------------------------------
B|----------------------------------------------------------
G|----------------------------------------------------------
D|----------------------------------------------------------
A|--8---8---8---8--0----repeat x1---------------------------
E|----------------------------------------------------------


Just wanted to be myself-----

Hey you said you would love to try some

E|-----------------------------------------------------------
B|-----------------------------------------------------------
G|-----------------------------------------------------------
D|---6-----6-----6-------------------------------------------
A|---6-----6-----4-------------------------------------------
E|---4-----4-------------------------------------------------


Hey you said you would love to die some

in the middle of a world on a fish hook your

    the wave----- your the wave--- your the wave


CHORUS

 AbC
Swalowed Borrowed

Swallowed Hollowed

Swallowed Oh no

 DbBb
Heavy bout everything but my love

Sharp about everyone but yourself

Im with everyone and yet not

 AbC
      Im with----- every-------one and yet ------not


repeat x3

 E|----------------------------------------------------------
B|-----------------------------------------------------------
G|--9--9--9--9--9--9--9--9--9--9--9--9--/--1/2--0------------
D|-----------------------------------------------------------
A|-----------------------------------------------------------
E|-----------------------------------------------------------


 AbC
        repeat x5                                    

 AbC
Im with everyone and yet not

Im with everyone and yet not
            ---------------------------------------


Gotta get away from here
repeat x4
Miss the one that Iove alot
repeat x3

E|--------------------------------------------------------
B|--------------------------------------------------------
G|-----10---------7---7----------7----------9-------------
D|-----11---------8------8-----------7--------10----------
A|-----11---------8--------8---------------------10-------
E|------9---------6-----------6---------6/8---------------
E|--------------------------------------
B|--------------------------------------
G|--------------------------------------
D|--------------------------------------
A|------6-6-6-x-6-6-x-6~~~~~~~~~~~~~~~~~
E|------4-4-4-x-4-4-x-4~~~~~~~~~~~~~~~~~



Ab Ab5 Bb C C5 Db Db5 F5
variations - click chord images
Transpose chords:
Tuning:
Cool service:
View: Size:
A  A  A
Rating:
Layout:
  • Currently 3.1/5 Stars.
  • 1
  • 2
  • 3
  • 4
  • 5
 
Accuracy:
  • Currently 3.1/5 Stars.
  • 1
  • 2
  • 3
  • 4
  • 5
 
click stars to rate
Chordie recommends:
Learn to play guitar with video-based, online guitar lessons at JamPlay.com
Songbook:
Login to add this song to your songbook
Support the artist
Preview/buy this song
MSN Music
Why this non-profit ad?

 
login to add comments/video/corrections