Guitar Tabs, Chords and Lyrics


Cut You In   Various Artists


    CUT YOU IN  
    Written by Jerry Cantrell
    Transcribed and contributed by Brent


    Tuning:

    1/2 step down


    Main Riff:

    Eb:----2----2--1--2----2----1--2--3------3--3--3----|
    Bb:----2----2--1--2----2----1--2--3------3--3--3----|
    Gb:----3----3--2--3----3----2--3--4------4--4--4----|
    Db:----4----4--3--4----4----3--4--5------5--5--5----|
    Ab:----4----4--3--4----4----3--4--5------5--5--5----|
    Eb:----2----2--1--2----2----1--2--3------3--3--3----|


    Solo:

    Eb:-----------5-----------------5------5------7fb-------------------|
    Bb:-------7--------7----------------5--------------------5-----7v---|
    Gb:---6-----6---------6---------------------------------------------| X2
    Db:-----------------------------------------------------------------|
    Ab:-----------------------------------------------------------------|
    Eb:-----------------------------------------------------------------|

    Eb:--------------------------------------------------------------------|
    Bb:---5--h---7--p-5-------------5--------------------------------------|
    Gb:----------------------6-------------6-5-4-----2--h--4-p-2-----------|
    Db:---------------------------------------------------------------4v---|
    Ab:--------------------------------------------------------------------|
    Eb:--------------------------------------------------------------------|

    Eb:----------------------------------------------5fb-------------------|
    Bb:-------------------------------------------5------------------------|
    Gb:-------------------2-4-2--------4fb---------------------------------|
    Db:-----------------4--------------------------------------------------|
    Ab:---2--s--4----------------------------------------------------------|
    Eb:--------------------------------------------------------------------|


    Mess around with an artficial harmonic on the 242 on Gb.


    fb = full step bend
    v = vibrato
    s = slide
    p = pull off


Important: The song above is NOT stored on the Chordie server. The original song is hosted at members.tripod.com. Chordie works as a search engine and provides on-the-fly formatting. Chordie does not index songs against artists'/composers' will. To remove this song please click here.

This song is displayed as text-only. Transposing and tuning is only available for chordpro-songs.

Login - add to songbook

Rating click stars to rate

Layout
Accuracy

SHARE PAGE  




You need to log in to post comments