Guitar Tabs, Chords and Lyrics


Everlong   Various Artists


Song: Everlong
Band: Foo Fighters
Album: The Colour and the Shape (1997)
Tabbed by: www.GuitarTabs.com



E :----------------------|---------------------|--------------------|
B :----------------------|---------------------|--------------------|
G :----------------------|---------------------|--------------------|
D :------11---11-11---11-|11---11---11-11-11---|----11---11-11---11-|
A :(9)----9----9--9----9-|-9----9----9--9--9---|-----9----9--9----9-|
D :-0--0----0-------0----|---0----0----------0-|9-9----9-------9----|

E :--------------------|-----------------|------------------|
B :--------------------|-----------------|------------------|
G :--------------------|-----------------|------------------|
D :----11---11-11-11---|----7-------7----|----11-------11---|
A :-----9----9--9--9-0-|----5-------5----|-----9--------9---|
D :9-9----9----------0-|5-5---5-5-5---5/-|9-9----9-9-9----9-|

E :------------------ 5|----------------|----------------------|
B :------------------ ||----------------|----------------------|
G :------------------*||6-6-6-7-7-7-9-9-|9-11-11-11-11-12-14---|
D :----11-------11---*||0-0-0-0-0-0-0-0-|0--0--0--0--0--0--0-7-|
A :-----9--------9--- ||4-4-4-5-5-5-7-7-|7--9--9--9--9-10-12-7-|
D :9-9----9-9-9----9- ||0-0-0-0-0-0-0-0-|0--0--0--0--0--0--0-7-|

E :------------------|----------------|--------------------| --|
B :------------------|----------------|--------------------| --|
G :------------------|6-6-6-7-7-7-9-9-|9-11-11-11-11-12-14-|*--|
D :(7)-7-7---7-7-7---|0-0-0-0-0-0-0-0-|0--0--0--0--0--0--0-|*9-|
A :(7)-7-7---7-7-7---|4-4-4-5-5-5-7-7-|7--9--9--9--9-10-12-| 9-|
D :(7)-7-7---7-7-7-0-|0-0-0-0-0-0-0-0-|0--0--0--0--0--0--0-| 9-|

E :------------------|------------------|------------------|
B :------------------|----------------3-|(3)-3-3---3-3-3-3-|
G :------------------|----------------2-|(2)-2-2---2-2-2-2-|
D :(9)-9-9---9-9-0-5-|(5)-5-5---5-5-0-0-|(0)-0-0---0-0-0-0-|
A :(9)-9-9---9-9-0-5-|(5)-5-5---5-5-0-0-|(0)-0-0---0-0-0-0-|
D :(9)-9-9---9-9-0-5-|(5)-5-5---5-5-0-0-|(0)-0-0---0-0-0-0-|

E :--------------- 3|
B :3-3-3-3-3-3-3-- ||
G :2-2-2-2-2-2-2--*||
D :0-0-0-0-0-0-0--*||
A :0-0-0-0-0-0-0-- ||
D :0-0-0-0-0-0-0-- ||



Important: The song above is NOT stored on the Chordie server. The original song is hosted at members.tripod.com. Chordie works as a search engine and provides on-the-fly formatting. Chordie does not index songs against artists'/composers' will. To remove this song please click here.

This song is displayed as text-only. Transposing and tuning is only available for chordpro-songs.

Login - add to songbook

Rating click stars to rate

Layout
Accuracy

SHARE PAGE  




You need to log in to post comments