Guitar Tabs, Chords and Lyrics


Basketcase   Various Artists


Song: Basketcase
Band: Green Day
Album: Dookie   
Tabbed by: Chris Snedaker (csned@hotmail.com)

It's actually 2 steps down, but I play it this way so i don't have to 
tune every time I play it, you'll see why.  I think it sounds a lot 
like this though.  I messed up a bunch though on the introcause i 
think there's a lot more pm's. Just kinda listen to the real song and 
make it work.

Intro
e---------------------------------------------
B------------------------------------------------
G------------------------------------------------
D---14--14--x-14--9--x-9--x-x--9-x--11--11--x-11--6--x-6--x-x--6-x
A---14--14--x-14--9--x-9--x-x--9-x--11--11--x-11--6--x-6--x-x--6-x
E---12--12--x-12--7--x-7--x-x--7-x---9---9--x--9--4--x-4--x-x--4-x

D----7--7--x-x-x--14--x-14--x-x--14-x--9--9--x-x-x--9--x-9--x-x--9-x
A----7--7--x-x-x--14--x-14--x-x--14-x--9--9--x-x-x--9--x-9--x-x--9-x
E----5--5--x-x-x--12--x-12--x-x--12-x--7--7--x-x-x--7--x-7--x-x--7-x
Repeat once
Then...

Bridge1
D----7--7--x-x-x--9--x-9--x-x--9-x--14--14--x-x-x--14--x-14--x-x--14-x
A----7--7--x-x-x--9--x-9--x-x--9-x--14--14--x-x-x--14--x-14--x-x--14-x
E----5--5--x-x-x--7--x-7--x-x--7-x--12--12--x-x-x--12--x-12--x-x--12-x
Repeat once
Then...

D----7--7--x-x-x--9--x-9--x-x--9-x
A----7--7--x-x-x--9--x-9--x-x--9-x
E----5--5--x-x-x--7--x-7--x-x--7-x

Bridge2
D-14-14--12-12-12--11--11-11--11-11-11-11--7--7--7-7-7--9--9-9--9-9--9-9
A-14-14--12-12-12--11--11-11--11-11-11-11--7--7--7-7-7--9--9-9--9-9--9-9
E-12-12--10-10-10---9---9--9---9--9--9--9--5--5--5-5-5--7--7-7--7-7--7-7

Bridge3
D----14-x-9-9-x-11-11-x-9-9-x
A----14-x-9-9-x-11-11-x-9-9-x
E----12-x-7-7-x--9--9-x-7-7-x
Repeat once
Then...

Verse A
D----2--2--2-2-2--9--9-9--9-9-9-9--11--11--11-11--6--6-6--6-6-6-6
A----2--2--2-2-2--9--9-9--9-9-9-9--11--11--11-11--6--6-6--6-6-6-6
E----O--O--O-O-O--7--7-7--7-7-7-7---9---9---9--9--4--4-4--4-4-4-4

D----7--7--7-7-7--14--14-14--14-14-14-14--9--9--9-9-9--9--9-9--9-9-9-9
A----7--7--7-7-7--14--14-14--14-14-14-14--9--9--9-9-9--9--9-9--9-9-9-9
E----5--5--5-5-5--12--12-12--12-12-12-12--7--7--7-7-7--7--7-7--7-7-7-7

D----14--14--14-14--9--9-9--9-9-9-9--11--11--11-11---6--6-6--6-6-6-6
A----14--14--14-14--9--9-9--9-9-9-9--11--11--11-11---6--6-6--6-6-6-6
E----12--12--12-12--7--7-7--7-7-7-7---9---9---9--9---4--4-4--4-4-4-4

D----7--7--7-7-7--2--2-2--2-2-2-2--9--9--9-9-9--9--9-9--9-9-9-9
A----7--7--7-7-7--2--2-2--2-2-2-2--9--9--9-9-9--9--9-9--9-9-9-9
E----5--5--5-5-5--0--0-0--0-0-0-0--7--7--7-7-7--7--7-7--7-7-7-7

Chorus
D--7--7--7-7-7--9--9-9--9-9-9-9--14--14--14-14-14--14--14-14--14-14-14/
A--7--7--7-7-7--9--9-9--9-9-9-9--14--14--14-14-14--14--14-14--14-14-14/
E--5--5--5-5-5--7--7-7--7-7-7-7--12--12--12-12-12--12--12-12--12-12-12/
Repeat

D----7--7--7-7-7--9--9-9--9-9-9-9
A----7--7--7-7-7--9--9-9--9-9-9-9
E----5--5--5-5-5--7--7-7--7-7-7-7

Bridge2

Bridge3
Repeat 3 times
Then...

Bridge4
D----x-x-5-x-x-x-5-x-x-x-5-x-x-x-5-x--9--9--9-9-9-9
A----x-x-5-x-x-x-5-x-x-x-5-x-x-x-5-x--9--9--9-9-9-9
E----x-x-5-x-x-x-5-x-x-x-5-x-x-x-5-x--7--7--7-7-7-7

Verse B
D--2--2--2-2-2--9--9-9--9-9-9-9--11--11--11-11--6--6-6--6-6-6-6--7--7--7-7
A--2--2--2-2-2--9--9-9--9-9-9-9--11--11--11-11--6--6-6--6-6-6-6--7--7--7-7
E--O--O--O-O-O--7--7-7--7-7-7-7---9---9---9--9--4--4-4--4-4-4-4--5--5--5-5

D---2--2-2--2-2-2-2--9--9--9-9-9-9--9--9--9-9-9
A---2--2-2--2-2-2-2--9--9--9-9-9-9--9--9--9-9-9
E---O--O-O--O-O-O-O--7--7--7-7-7-7--7--7--7-7-7
Repeat then...
Bridge1
Repeat then...

D---7--7--x-x-x--9--x-9--x-x--9-x
A---7--7--x-x-x--9--x-9--x-x--9-x
E---5--5--x-x-x--7--x-7--x-x--7-x

Bridge2

D----14--14-14--14-14--11--11-11--11-11--7--7--14-14/--9--9-9--9-9-9-9
A----14--14-14--14-14--11--11-11--11-11--7--7--14-14/--9--9-9--9-9-9-9
E----12--12-12--12-12---9---9--9---9--9--5--5--12-12/--7--7-7--7-7-7-7
Repeat twice

D----14--14-14--14-14--11--11-11--11-11--7----14----9--------7----2----9
A----14--14-14--14-14--11--11-11--11-11--7----14----9--------7----2----9
E----12--12-12--12-12---9---9--9---9--9--5----12----7--------5----O----7

AND THAT BE THE SONG MATEY!  KINDA.  SOMTHIN LIKE THAT ANYWAYS. 


Important: The song above is NOT stored on the Chordie server. The original song is hosted at members.tripod.com. Chordie works as a search engine and provides on-the-fly formatting. Chordie does not index songs against artists'/composers' will. To remove this song please click here.

This song is displayed as text-only. Transposing and tuning is only available for chordpro-songs.

Login - add to songbook

Rating click stars to rate

Layout
Accuracy

SHARE PAGE  




You need to log in to post comments