Guitar Tabs, Chords and Lyrics


Hitchin a Ride   Various Artists


Song: Hitchin' a Ride
Band: Green Day
Album: Nimrod (1997)
Tabbed by: Crazy Dan (GUHA@HOTMAIL.COM)



Tuned standard Opening violin (!) arr. for guitar:
G--------4h5--7~~---8-7-5-4h5p4------------
D---4h5-------------------------------5~~~-


e----------------------
B----------------------
G----------------------
D----------------------
A-9-9-7-7-6-6-5-5-5-5--
E-7-7-5-5-4-4-3-3-3-3--

(After B.J. says one two, one two three four; play this normally)

Chorus: (Troubled times, You know I Cannot Lie)
eb----------------------------------------
Bb----------------------------------------
Gb----------------------------------------
Db----------------------------------------
Ab-2-2-2-2-4-4-4-4--9-9-7-7-6-6-5-5-------
Eb-0-0-0-0-2-2-2-2--7-7-5-5-4-4-3-3-------


eb----------------------------------------
Bb----------------------------------------
Gb----------------------------------------
Db----------------------------------------
Ab-2-2-2-2-4------------------------------
Eb-0-0-0-0-2------------------------------


Solo: 

e-------------------------------------------------------------------------
B-------------------------------------------------------------------------
G--------------------------19-19-19-19-19-19-19-19------------------------
D-21-21-21-21-21-21-12-21---------------------------21-21-21-21-21-21-21-21     
A--------------------------17-17-17-17-17-17-17-17-------------------------
E-19-19-19-19-19-19-19-19---------------------------19-19-19-19-19-19-19-19


e------------------------------------------------------------------------------
B------------------------------------------------------------------------------
G----------------------------------------------------19-19-19-19-19-19-19-19---
D-17-17-17-17--16-16-16-16--21-21-21-21-21-21-21-21----------------------------
A----------------------------------------------------17-17-17-17-17-17-17-17---
E-15-15-15-15--14-14-14-14--19-19-19-19-19-19-19-19----------------------------


                (Pull to about 1/2 )
e------------------------------------------------------------------------------
B------------------------------------------------------------------------------
G-21-21-21-21-21-21-21-21--21-21-19-19-16-16-19-19--21-21-19-19-16-16-19-19
D------------------------------------------------------------------------------
A-19-19-19-19-19-19-19-19--19-19-17-17-14-14-17-17--19-19-17-17-14-14-17-17
E------------------------------------------------------------------------------


e------------------------------------------------------------------------------
B------------------------------------------------------------------------------
G-21-21-19-19-16-16-19-19-16-16-19-19-16-16-14-14-16-16-19-19-21-21-19-19------
D------------------------------------------------------------------------------
A-19-19-17-17-14-14-17-17-14-14-17-17-14-14-12-12-14-14-17-17-19-19-17-17------
E------------------------------------------------------------------------------


                                    (Pull to about ½) 
e------------------------------------------------------------------------------
B------------------------------------------------------------------------------
G-16-16-19-19-21-21-19-19-21-21-21-21-21-21-21-21------------------------------
D------------------------------------------------------------------------------
A-14-14-17-17-19-19-17-17-19-19-19-19-19-19-19-19------------------------------
E------------------------------------------------------------------------------ 


Outro
e-----------------------------------------------
b-----------------------------------------------
g-----------------------------------------------
d-4-4-7-7---------------------------------------
a-2-2-5-5-5-5-4-4-4-----------------------------
E---------3-3-2-2-2-----------------------------


Play a couple of time and then play the verse riff for the last riff

The grid at the end
e------------------
b-----8------------
g----7-------------
d---6--------------
a--7---------------


Important: The song above is NOT stored on the Chordie server. The original song is hosted at members.tripod.com. Chordie works as a search engine and provides on-the-fly formatting. Chordie does not index songs against artists'/composers' will. To remove this song please click here.

This song is displayed as text-only. Transposing and tuning is only available for chordpro-songs.

Login - add to songbook

Rating click stars to rate

Layout
Accuracy

SHARE PAGE  




You need to log in to post comments