Guitar Tabs, Chords and Lyrics


Antichrist Superstar  Marilyn Manson



-------------------------------------------------------------------------------e

-------------------------------------------------------------------------------b
-------------------------------------------------------------------------------g
-------------------------------------------------------------------------------d
4-4-4-7-7-7-9-9-.-.-.-9-9-9-7-7-4-4-4-7-7-7-9-9-2--2--2--2---------------------a
2-2-2-5-5-5-7-7-8-8-8-7-7-7-5-5-2-2-2-5-5-5-7-7-0--0--0--0---------------------e
-----------------------------------------------------------------------------e
-----------------------------------------------------------------------------b
-----------------------------------------------------------------------------g
-----------------------------------------------------------------------------d
4-4-4-7-7-7-9-9-.-.-.-9-9-9-7-7-4-4-4-7-7-7-9-9-2--2--2--2-------------------a
2-2-2-5-5-5-7-7-8-8-8-7-7-7-5-5-2-2-2-5-5-5-7-7-0--0--0--0-------------------e
[F#5]    [C5]   [B#5]    [A5]   [B#5]    [A5]   [F#5]    [C5]   [B#5]    [A5]   [E5] [F#5] [C5] [B#5] [A5] [B#5] [A5] [E5] [F5] 
Finally

G---------11-12-11-12-11-12-11-12-11-12-15-12


This part is played in the quiet (!) part of the song.

Chris Taylor
CNTaylor@NetcomUK.co.UK

CNTaylor@ Netcomuk.co.uk (home address)
C.Taylor@ed.sac.ac.uk (work address)

Important: The song above is NOT stored on the Chordie server. The original song is hosted at members.tripod.com. Chordie works as a search engine and provides on-the-fly formatting. Chordie does not index songs against artists'/composers' will. To remove this song please click here.

Text color:
Chord color:
Chord grids: 
Font size:    
Page size: 

A5 C5 E5 F#5 F5
variations - click chord images

Login - add to songbook

Transpose chords

Tuning

Rating click stars to rate

Layout
Accuracy

SHARE PAGE  




You need to log in to post comments