eToCache5 = ""; ?> Floaty by Foo Fighters - guitar chords, guitar tabs and lyrics - chordie

Floaty

Foo Fighters



   ------------

e:----------------------------------------------------|

B:----------------------------------------------------|

G:-8---8--8---8--8---8---8---8---8--8---8--8---8---8--|

D:-9---9--9---9--9---9---9---9---9--9---9--9---9---9--|

A:-7---7--7---7--7---7---7---7---7--7---7--7---7---7--|

E:-0-------------------------0------------------------|

e:----------------------------------------------------|

B:----------------------------------------------------|

G:-8---8--8---8--8---8---8---8---8--8---8--8---8---8--|

D:-9---9--9---9--9---9---9---9---9--9---9--9---9---9--|

A:-7---7--7---7--7---7---7---7---7--7---7--7---7---7--|

E:-0-------------------------0------------------------|

e:----------------------------------------------------|

B:----------------------------------------------------|

G:-6---6--6---6--6---6---6---6---6--6---6--6---6---6--|

D:-7---7--7---7--7---7---7---7---7--7---7--7---7---7--|

A:-5---5--5---5--5---5---5---5---5--5---5--5---5---5--|

E:----------------------------------------------------|

e:-----------------------------------------------------|

B:-----------------------------------------------------|

G:-4---4--4---4--4---4---4-----------------------------|

D:-5---5--5---5--5---5---5---5---5--5---5--5---5---5---|

A:-3---3--3---3--3---3---3---5---5--5---5--5---5---5---|

E:---------------------------3---3--3---3--3---3---3---|


Chorus:
Guitar 1
e:----------------------------------------------|
B:----------------------------------------------|
G:----------------------------------------------|
D:----9---9--9---7---6-------9---9--9---7---6---|
A:----------------------------------------------|
E:0----------------------0----------------------|

|
Guitar 2 |
e:----------------------------------------------|
B:----------------------------------------------|
G:----------------------------------------------|
D:2----------------------2----------------------|
A:2----------------------2----------------------|
E:0----------------------0----------------------|
e:-----------------------------------------------------|
B:-----------------------------------------------------|
G:-----------------------------------------------------|
D:-6---6--6---6--6---6---6----7---7--7---7--7---7---7--|
A:-6---6--6---6--6---6---6----7---7--7---7--7---7---7--|
E:-4---4--4---4--4---4---4----5---5--5---5--5---5---5--|

That's not as big as what's float - ing...
Then end on this cutesy little riff.
e:-------------------------------------|
B:-------------------------------------|
G:-------------------------------------|
D:-2-----------------------------------|
A:-2--------2--2---2----2--2---0-------|
E:-0-------------------------------4---|

Bridge:
e:-------------------------------------------|
B:-------------------------------------------|
G:-4--4--4--4--4--4--4---7-7-7-7-7---4---7---|
D:-4--4--4--4--4--4--4---7-7-7-7-7---4---7---|
A:-2--2--2--2--2--2--2---5-5-5-5-5---2---5---|
E:-------------------------------------------|
e:---------------------------------------------------|
B:---------------------------------------------------|
G:---------------------------------------------------|
D:-6---6--6---6--6---6---6---2---2---2---6---6---6---|
A:-6---6--6---6--6---6---6---2---2---2---6---6---6---|
E:-4---4--4---4--4---4---4---0---0---0---4---4---4---|

Lyrics:
He floats
Floats away
On the ground
He comes back down.
(Repeat, substituting the he with she, we, and they)
That's not as big as
What's floating here.




















variations - click chord images
Transpose chords:
Tuning:
Cool service:
View: Size:
A  A  A
Rating:
Layout:
  • Currently 0/5 Stars.
  • 1
  • 2
  • 3
  • 4
  • 5
 
Accuracy:
  • Currently 2.8/5 Stars.
  • 1
  • 2
  • 3
  • 4
  • 5
 
click stars to rate
Chordie recommends:
Learn to play guitar with video-based, online guitar lessons at JamPlay.com
Songbook:
Login to add this song to your songbook
Support the artist
Preview/buy this song
MSN Music
Why this non-profit ad?

 
login to add comments/video/corrections