Heart Of Stone

Rolling Stones

|--------|  |-----| |-------| |-----| |-----|  |-----| |-----| |---0-| |-------|

|---1----|  |-----| |-------| |-----| |-1---|  |-----| |-----| |---1-| |-------|

|---2--2-|  |-----| |-------| |-----| |-0-0-|  |-----| |-----| |---0-| |-------|

|-3----3-|  |-----| |-------| |-----| |---2-|  |-----| |-----| |-----| |-------|

|--------|  |-----| |-----0-| |-0-2-| |-----|  |-----| |-3-2-| |-3---| |-0-0-2-|

|--------|  |-2-3-| |-3-4---| |-----| |-----|  |-3-4-| |-----| |-----| |-------|

|---------| |---0-|  |---3-|

|---------| |---1-|  |---0-|

|---------| |---0-|  |---0-|

|---------| |---2-|  |-----|

|---0-2-0-| |-3---|  |-----|

|-3-------| |-----|  |-3---|


 G7CG7C//////////////////
                                                                                Verse 1
 G7CC7FBbF
 / / / / /// / /// / /// / / / / /// / ///  / /// (fill 1)
There have been so many girls that I've known
 DG
 / / / / / / / / / /// / (fill 2) / / / / /// / (fill 3)
I've made so many cry and still I wonder why
Pre Chorus
 AmAm
 / / / /// / /// /       (fill 3)   / / / /// / /// /(fill 3)
Here comes the little girl, I see her walking down the street
 AmAm
 / / / /// / /// /       (fill 3)   / / / /// / /// /(fill 3)
She's all by herself I try and knock her off her feet
Chorus
 F////////////
   But she'll never break,
never break,
never break, never
 G3C3G3AmC
 / /// / / /  /                  /                       (fill 4)/
break This heart of stone. Oh, no, no this heart of stone
Verse 2
 GCC7/////////
                                     What's different about her?        I don't really
 FBbFD
 / / / / / /  / /// / (fill 5) / /// / /// / /// / ///
know No matter how I try
 G7
 / /// / /// / /// /(fill 3)
I just can't make her cry
Solo
B is whole step bend
r is release
/ is slide up
Z is fret ten (10) I did this just to make it fit
 AmAm
 / / / /// / /// /  (fill 3)             /   / / / / /// /(fill 3)
|--------------------------------------|--------------------------------------|
|--------------------------------------|--------------------------------------|
|---------------------5-7B-7B-7B-7-5---|---5-5-7-7B-7B-r7-5---5---5-------5-7-|
|---------5---5---5-7----------------7-|-7------------------7---7---7--7------|
|-----5-7---7---7----------------------|--------------------------------------|
|-5-8----------------------------------|--------------------------------------|

 AmAm
 /// / /// / /// /       (fill 6)        / /// / /// / /// / ///
|--------------8-Z-ZB-ZB-ZB-ZB-ZB-rZ-8-|---ZB-ZB-ZB-ZB-ZB-----ZB-ZB-ZB-ZB-----|
|---5-5/8-8/10------------------------Z|-Z------------------------------------|
|-7------------------------------------|--------------------------------------|
|--------------------------------------|--------------------------------------|
|--------------------------------------|--------------------------------------|
|--------------------------------------|--------------------------------------|

Chorus
 F////////////
   But she'll never break,
never break,
never break, never
 G3C3G3AmC
 / /// / / /  /                  /                       (fill 4)/
break This heart of stone. Oh, no, no this heart of stone
 G2CC7FBbF
 /             /  / /// / / / / / / / / / / / / /  / / / / (fill 7)
Don't keep on looking that same old way
 DG3
 / /// / /// / /// /    / / / / / / / / /(fill 3)
If you try acting sad, you'll only make me glad
 AmAm
 / / / /// / /// /       (fill 3)   / / / /// / /// /(fill 3)
Better listen little girl You go on walking down the street
 AmAm
 / / / /// / /// /       (fill 3)   / / / /// / /// /(fill 3)
I ain't got no love, I ain't the kind to meet Cause you'll
 F////////////
   never break, never break,
never break, never
 G3C3G3AmCG/B
 / /// / / /  /                  /                       (fill 8)/ / / / / / / / /
break This heart of stone. Oh, no, no this heart of stone darlin'. No, no this heart of
 AmCG3
  / / / / /// (fill 9) (fill 8)                  / / / / / / (fill 10)
stone You'll never break it, darlin'. You won't break This heart of stone. Oh, no, no,
 Am
 /   / /// /(fill 9)          (fill 11)(fill 12)(fill 9) fade
no You better go, you better go home...


Corrected by gert. View original
Am Bb C C3 C7 D F G G/B G2 G3 G7
variations - click chord images
Transpose chords:
Tuning:
Cool service:
View: Size:
A  A  A
Rating:
Layout:
  • Currently 3/5 Stars.
  • 1
  • 2
  • 3
  • 4
  • 5
 
Accuracy:
  • Currently 2.5/5 Stars.
  • 1
  • 2
  • 3
  • 4
  • 5
 
click stars to rate
Chordie recommends:
Learn to play guitar with video-based, online guitar lessons at JamPlay.com
Songbook:
Login to add this song to your songbook
Support the artist
Preview/buy this song
MSN Music
Why this non-profit ad?

 
login to add comments/video/corrections