Jumping Jack Flash

Rolling Stones



twice-------------->

-------------------|-----|

-------------------|-----|

-------------------|-----|

-9-7---------------|-9-9-|

-7-5-9-9-----------|-9-9-|

-x-x-7-7-----------|-x-x-|

-------------------|

-------------------|

-------------------|

-----7-----7-------|

-7-9---7-9---------|

-------------------|

-------------------|

-------------------|

-------------------|

-----7-9-9---------|

-7-9---9-9---------|

-------------------|


 DAEB
---|---|---|---|

---|---|---|---|
---|---|---|---|
-7-|---|-9-|---|
-5-|-7-|-7-|-9-|
---|-5-|---|-7-|
Rolling Stones
Jumpin' Jack Flash - Jagger, Richard 1968
riff1 riff2 riff1
riff2 riff1 riff2
I was born in a cross-fire hurricane
riff1
riff2 riff1 riff2
And I howled at my ma in the driving rain,
riff1
 DAEB
 But it's all right now, in fact, it's a gas!
 DAE
 But it's all right. I'm Jumpin' Jack Flash,
 B
It's a gas! Gas! Gas!
intro
riff1 riff2 riff1
riff2 riff1 riff2
I was raised by a toothless, bearded hag,
riff1
riff2 riff1 riff2
I was schooled with a strap right across my back,
riff1
 DAEB
 But it's all right now, in fact, it's a gas!
 DAE
 But it's all right, I'm Jumpin' Jack Flash,
 B
It's a gas! Gas! Gas!
intro (many times)
riff1 riff2 riff1
riff2 riff1 riff2
I was drowned, I was washed up and left for dead.
riff1
riff2 riff1 riff2
I fell down to my feet and I saw they bled.
riff1
riff2 riff1 riff2
I frowned at the crumbs of a crust of bread.
riff1
riff2 riff1 riff2
I was crowned with a spike right thru my head.
riff1
 DAEB
 But it's all right now, in fact, it's a gas!
 DAE
 But it's all right, I'm Jumpin' Jack Flash,
 B
It's a gas! Gas! Gas!
------------------------------------------------------------------



Corrected by mpita. View original
A B D E
variations - click chord images
Transpose chords:
Tuning:
Cool service:
View: Size:
A  A  A
Rating:
Layout:
  • Currently 3/5 Stars.
  • 1
  • 2
  • 3
  • 4
  • 5
 
Accuracy:
  • Currently 2.6/5 Stars.
  • 1
  • 2
  • 3
  • 4
  • 5
 
click stars to rate
Chordie recommends:
Learn how to play guitar at JamPlay.com
Songbook:
Login to add this song to your songbook
Support the artist
Preview/buy this song
MSN Music
Why this non-profit ad?

 
login to add comments/video/corrections