Guitar Tabs, Chords and Lyrics


Miss You(Bass)   Rolling Stones


Miss You Bass Tab
G|-----2------0-------0---2-|----2---0---0-------0---2-|-2-------7-----7----2-----|
D|--------------------------|----------------2---------|-----0-----------------0--|
A|-0------------------------|-0------------------------|--------------------------|
E|--------------------------|--------------------------|--------------------------|

G|-----7---5--------5---7---|---------2---0-----0---2--|----2--0----0-------0---2-|
D|-0------------7-----------|--------------------------|----------2---------------|
A|--------------------------|----0---------------------|-0------------------------|
E|--------------------------|--------------------------|--------------------------|

G|-----7---5--------5---7---|-----7---5----4-----------|-----2---0----12-14-------|
D|-0------------7-----------|-0-----------------7------|---------------------14---|
A|--------------------------|--------------------------|-0------------------------|
E|--------------------------|--------------------------|--------------------------|

G|-----2---0---12h13h14-----|--------------------------|-----7---5---4------------|
D|-0---------------------14-|-0------------------0-----|-0-----------------7------|
A|--------------------------|-----3---0----3-----------|--------------------------|
E|--------------------------|--------------------------|--------------------------|

not finished
G|--------------------------|--------------------------|--------------------------|
D|--------------------------|--------------------------|--------------------------|
A|--------------------------|--------------------------|--------------------------|
E|--------------------------|--------------------------|--------------------------|



Important: The song above is NOT stored on the Chordie server. The original song is hosted at members.tripod.com. Chordie works as a search engine and provides on-the-fly formatting. Chordie does not index songs against artists/composers will. To remove this song please click here.

This song is displayed as text-only. Transposing and tuning is only available for chordpro-songs.

Login - add to songbook

Rating click stars to rate

Layout
Accuracy

SHARE PAGE  




You need to log in to post comments