Chordie logo

The Spider And The Fly  Rolling Stones


































E--0---------0----------0------------0----------0----------0----------0-


B--0---------0----------0------------0----------0----------0----------0-


G--1---------2----------4------------2----------1----------2----------4-


D--0---------0----------0------------0----------0----------0----------0-


A--2---------4----------5------------4----------2----------4----------5-


E--0---------0----------0------------0----------0----------0----------0-







E--0----------0----------0----------0----------0----------0----------0--


B--2----------3----------5----------3----------2----------3----------5--


G--0----------0----------0----------0----------0----------0----------0--


D--2----------4----------5----------4----------2----------4----------5--


A--0----------0----------0----------0----------0----------0----------0--


E--x----------x----------x----------x----------x----------x----------x-




















[B7]I don^�t  wanna be alone     But [A7]I love my girl at home
E7 riff C7 B7
I remember what she said
E7 riff
She said, ^�My, my, my don^�t tell lies!
E7 riff
Keep fidelity in your head!
A7 riff
My, my, my, Don^�t tell lies
E7 riff
When you^�ve done your show hit the bed
[B7]Don^�t say  ^�Hi^�,   like a spider[A7] to a fly
E7 riff C7 B7
Jump right ahead and your dead!
Sit up, fed up, low down, go round
Down to the bar at the place I^�m at
Sittin^�, drinkin^�, superficially thinkin^�
about the rinsed out blonde on my left
and then I said ^�Hi^�, like a spider to a fly
Remembering what my little girl said
(harmonica solo)
she was common, flirty
she looked about thirty
I would have run away but I was on my own
She told me later she was a machine operator
she said she liked the way I held the microphone
I said, ^�My, my, my, like a spider to a fly
Jump right ahead in my web!^�
(guitar solo and end)

Important: The song above is NOT stored on the Chordie server. The original song is hosted at members.tripod.com. Chordie works as a search engine and provides on-the-fly formatting. Chordie does not index songs against artists/composers will. To remove this song please click here.

A7 B7
variations - click chord images

Login - add to songbook

Transpose chords

Tuning

Rating click stars to rate

Layout
Accuracy

SHARE PAGE  



You need to log in to post comments