Time Is On My Side

Rolling Stones



 BbDmG7C7
                                                                        Verse 1:
 FBbC
        Time is on my side, yes it is  (2x)
 DmC7DmG7
        Now you always say   that you want to be free
 CBb
        But you'll come runnin' back (3x)
 C7
        To me
Verse 2:
Time is on my side, yes it is (2x)
You're searchin' for good times, but just wait and see
But you'll come runnin' back (3x)
To me
Bridge (spoken):
 Bb7
        Go ahead, baby, go ahead
 F7
        Go ahead and lay it on the town
 Bb7F7
        And baby, do anything your heart desires
Remember I'll always be around
 Bb7Dm
        And I know, I know, like I told you so many times before
 G7
        You're gonna come back, yeah, you're gonna come back baby
 C7
        Knockin', yeah, knockin' right on my door
Verse 3:
Time is on my side, yes it is (2x)
'Cause I got the real love, the kind that you need
But you'll come runnin' back (3x)
To me
Coda:
 FBbC
        Time, time, time, is on my side, yes it is
-- another ace 60's tab from Andrew Rogers
The Rolling Stones
Time Is On My Side
Norman Meade
Both guitars in standard tuning
Chords Low to High (Z is fret 10)
Guitar 1
 F133211
 F2     XX3211
F3 X33211
Bb XX333X
Bb2 6887XX
Bb5 68XXXX
Bb3 X1333X
B 79XXXX
C 8ZZXXX
C7 8Z8988
C5 8ZXXXX
C2 8ZZ9XX
C3 X3555X
D* ZXXXXX
G* X8XXXX
Guitar 2
F X8ZZZX
Bb 688766
C 8ZZ988
Dm X57765
 G355433
 C7     8Z8988
 G7353433
                    B full step bend
b half step bend
bb quarter step bend
r release
~ vibrato
h hammer on
151315 ect. is 15-13-15
Guitar 1
 BbDm
|--16B----16B-r--16B---13---------|-13------------------------------|
|-------------------------13------|---------------------------------|
|----------------------------15B--|--------15B-r--13b---------------|
|---------------------------------|----------------------15---------|
|---------------------------------|---------------------------------|
|---------------------------------|---------------------------------|

 G7C7
|----13---13---13---13---13---13--|---------------------------------|
|-16B--16B--16B--16B--16B--16B----|-----13--------------------------|
|---------------------------------|-15B---15B-15Br-13--15B-15B-15B-r|
|---------------------------------|------------------15-------------|
|---------------------------------|---------------------------------|
|---------------------------------|---------------------------------|

Verse
Play this 2 times
Time is on my side yes it is
||gtr1
||F F2 Bb F3 F2 Bb2 Bb5 B C C5 D* G*||
||/ / / / / / / / / / / / / / / / / / ||
|| ||
||gtr2 ||
||F Bb C ||
||/ / / / / / / / / / / / / / / / / / / / / / / / ||
end Verse
Pre Chorus
1 Now you always say that you want to be free
2 You're searching for good times but just wait and see
3 'Cause I've got the real love the kind that you need
gtr2
 DmCDmG
                                       gtr1
|---------------------------------|-------------------------1-------|
|--------6--6--------------5------|-6--------6-------0--------------|
|------7----7----------5-----5----|-7-----7-----7----0-----------0--|
|-7--7--------------5----5-----5--|-7--7-----------7-0--------------|
|-5-----------------3-------------|-5----------------2--------------|
|---------------------------------|------------------3--------------|

end Pre Chorus
Chorus
1you'll come running back I said you would baby
2you'll come running back I said you would darlin'
3you'll come running back I knew you would one day
|gtr1
|C Bb2
|/ / / / / / / / / / /
|
|gtr2
|C Bb
|/ / / / / / / / / / / / / /
1you'll come running back Like I told you so many times before
2you'll come running back Spend the rest of my life with you baby
3you'll come running back Like I told you before
|gtr1
|C2 Bb2
|/ / / / / / / / / / / / / /
|
|gtr2
|C Bb
|/ / / / / / / / / / / / / /
you'll come running back to
|gtr1
|C2 Bb3
|/ / / / / / / / / / / / /
|
|gtr2
|C Bb
|/ / / / / / / / / / / / / /
1st chorus ending
me Yeah!
|gtr1
|C2
|/ / / / / / / / / / / / / / / /
|
|gtr2
|C
|/ / / / / / / / / / / / / /
2nd chorus ending
me
|gtr1
|C7
|/ / / / / / / / / / / / / /
|
|gtr2
|C7
|/ / / / / / / / / / / / / /
3rd chorus ending
me
|gtr1
|C2
|/ / / / / / / / / / / / / /
|
|gtr2
|C
|/ / / / / / / / / / / / / /
Brige
Go ahead baby, go ahead Go ahead and light up the town
 BbF
 gtr2 
gtr1
|-16B-16B-16B-r-13-----13---------|---------------------------------|
|-----------------13--------------|------------------13-------------|
|-------------------15B--15B15B15B|r-13b------131515B--15B15B13-13--|
|---------------------------------|-----151315--------------------15|
|---------------------------------|---------------------------------|
|---------------------------------|---------------------------------|

and baby do anything your heart Remeber I'll always be around and I know
desires I know
 BbF
 gtr2 
gtr1
|--13-----13----------------------|------------------------------13-|
|----16-13---16~~~-13-11B---------|----------------------------13---|
|---------------------------131513|-15B---15Br-13--13bb--------14---|
|-------------------------15------|--------------15--15-------------|
|---------------------------------|---------------------------------|
|---------------------------------|---------------------------------|

like I told you so many times before you're gonna come back Yeah you're
Bb Dm gonna
gtr2
gtr1
|----13---------------------------|----10---------------------------|
|1613--16~~-13---13---------------|---------------------------------|
|-------------15B-15B13-13bb13-13-|-12B--1210--10-----------10bb10--|
|----------------------15-15-15-15|----------12--12-------12--12----|
|---------------------------------|---------------------------------|
|---------------------------------|---------------------------------|

come back baby knockin'yeah knockin'yeah knockin' on my door Yeah
 G7C
 gtr2 
gtr1
|----10---------------------------|---------------------------------|
|---------10--10------------------|-11-----------10-8-------8-------|
|-12B--12B--12--12B1210--10-----10|-12--10-8h9---10-8h9-----8h9-----|
|----------------------12--12-12--|-----------10--------10----------|
|---------------------------------|---------------------10----------|
|---------------------------------|---------------------------------|

Outro
both Guitars play the same thing
use these chords
F 13321X
Bb X1333X
C X3555X
C5 X35XXX
D5 X57XXX
E5 X79XXX
 F2133211
           Play this 2 times
Time time time is on my side yes it is
 FBbCC5D5E5
                                                                             then play this
Time time time is on my side yes it is
 FBbCF2
                                                                           Order To Play
Verse
Pre Chorus(use lyric 1 )
Chorus(use lyric 1 )(use 1st chorus ending )
Verse
Pre Chorus(use lyric 2 )
Chorus(use lyric 2 )(use 2nd chorus ending)
Bridge
Verse
Pre Chorus(use lyric 3 )
Chorus(use lyric 3 )(use 3rd chorus ending)
Outro


Bb Bb7 C C5 C7 D5 Dm E5 F F2 F7 G G7
variations - click chord images
Transpose chords:
Tuning:
Cool service:
View: Size:
A  A  A
Rating:
Layout:
  • Currently 3/5 Stars.
  • 1
  • 2
  • 3
  • 4
  • 5
 
Accuracy:
  • Currently 3.1/5 Stars.
  • 1
  • 2
  • 3
  • 4
  • 5
 
click stars to rate
Chordie recommends:
Learn how to play guitar at JamPlay.com
Songbook:
Login to add this song to your songbook
Support the artist
Preview/buy this song
MSN Music
Why this non-profit ad?

 
login to add comments/video/corrections