Guitar Tabs, Chords and Lyrics


Iaintscaredoflightning  Misc

  [G]                                                                           
E---------3---------------3---------------3---------------3-------
B-----3-----3---3-----3-----3---3-----3-----3---3-----3-----3---3-
G---0---0-----0-----0---0-----0-----0---0-----0-----0---0-----0---
D-----------------------------------------------------------------
A-----------------------------------------------------------------
E-3---------------3---------------3---------------3---------------

                                    [G]                                                                          
E---------3---------------3---------------3---------------3-------
B-----3-----3---3-----3-----3---3-----3-----3---3-----3-----3---3-
G---0---0-----0-----0---0-----0-----0---0-----0-----0---0-----0---
D-----------------------------------------------------------------
A-----------------------------------------------------------------
E-3---------------3---------------3---------------3---------------

          [G]                                                                          
E---------3---------------3---------------3---------------3-------
B-----3-----3---3-----3-----3---3-----3-----3---3-----3-----3---3-
G---0---0-----0-----0---0-----0-----0---0-----0-----0---0-----0---
D-----------------------------------------------------------------
A-----------------------------------------------------------------
E-3---------------3---------------3---------------3---------------

I aint scared of lightning
No I aint scared of lightning
  [D]                                                                          
E---------2---------------2---------------2-------
B-----3-----3---3-----3-----3---3-----3-----3---3-
G---2---2-----2-----2---2-----2-----2---2-----2---
D-0---------------0---------------0---------------
A-------------------------------------------------
E-------------------------------------------------

Come on and do your worst
It's the same old empty threat
  [C]                                [C/B]                                      
E---------0---------------0---------------0---------------0-------
B-----1-----1---1-----1-----1---1-----3-----3---3-----3-----3---3-
G---0---0-----0-----0---0-----0-----0---0-----0-----0---0-----0---
D-----------------------------------------------------------------
A-3---------------3---------------2---------------2---------------
E-----------------------------------------------------------------

If they gave degrees For cheating destiny
I've been standing proud Beneath the gathering cloud
  [D]                                                                          
E---------2---------------2
B-----3-----3---3-----3----
G---2---2-----2-----2---2--
D-0---------------0--------
A--------------------------
E--------------------------

Then man I got a first (go back to start)
And man I ain't dead yet
  [G]                                [C]                                      
E---------3---------------3---------------0---------------0-------
B-----3-----3---3-----3-----3---3-----1-----1---1-----1-----1---1-
G---0---0-----0-----0---0-----0-----0---0-----0-----0---0-----0---
D-----------------------------------------------------------------
A---------------------------------3---------------3---------------
E-3---------------3-----------------------------------------------

No I ain't scared of lightning
     [C/B]                                                                            
E-----------------------------------
B-----------------------------------
G-----------------------------------
D-----------------------------------
A-2-----------------3---------------
E-----------------------------------

And thunder never killed
  [D]                                [C]                                                                          
E---------2---------------2---------------------------------------
B-----3-----3---3-----3-----3---3---------------------------------
G---2---2-----2-----2---2-----2-----------------------------------
D-0---------------0-----------------------------------------------
A---------------------------------3-------------------------------
E-----------------------------------------------------------------

I was born in a summer storm I live there still
  [G]                                                                          
E---------3---------------3---------------3---------------3-------
B-----3-----3---3-----3-----3---3-----3-----3---3-----3-----3---3-
G---0---0-----0-----0---0-----0-----0---0-----0-----0---0-----0---
D-----------------------------------------------------------------
A-----------------------------------------------------------------
E-3---------------3---------------3---------------3---------------

  [D]                                [C]                                                                          
E---------2---------------2---------------------------------------
B-----3-----3---3-----3-----3---3---------------------------------
G---2---2-----2-----2---2-----2-----------------------------------
D-0---------------0-----------------------------------------------
A---------------------------------3-------------------------------
E-----------------------------------------------------------------

Yeah I was born in a summer storm I live there still
  [G]                                                                         
E---------3---------------3-----------------------
B-----3-----3---3-----3-----3---3-----------------
G---0---0-----0-----0---0-----0-------------------
D-------------------------------------------------
A-------------------------------------------------
E-3---------------3---------------3---------------

I think Tom pinches a couple of bass notes once in a while
but you get the picture.
For commendation/reccomendation/annhilation:
ihateibiza@hotmail.com

Important: The song above is NOT stored on the Chordie server. The original song is hosted at membres.lycos.fr. Chordie works as a search engine and provides on-the-fly formatting. Chordie does not index songs against artists'/composers' will. To remove this song please click here.

Text color:
Chord color:
Chord grids: 
Font size:    
Page size: 

C C/B D G
variations - click chord images

Login - add to songbook

Transpose chords

Tuning

Rating click stars to rate

Layout
Accuracy

SHARE PAGE  




You need to log in to post comments