Guitar Tabs, Chords and Lyrics


Onemoremile  Misc

E---------------------------------                            


B---0-----0---------0-----0-------                            


G-----0-----0---0-----0-----0---0-                                


D---------------------------------                          


A-7-----7-----7---9-----9-----9---                      


E---------------------------------                           


E-----------------------------------------------------------------                            


B---0-----0---------0-----0---------0-----0---------0-----0-------                            


G-----0-----0---0-----0-----0---0-----0-----0---0-----0-----0---0-                                


D-----------------------------------------------------------------                          


A-7-----7-----7---9-----9-----9---7-----7-----7---6-----6-----6---                      


E-----------------------------------------------------------------                           


E-----------------------------------------------------------------                            


B---0-----0---------0-----0---------0-----0---------0-----0-------                            


G-----0-----0---0-----0-----0---0-----0-----0---0-----0-----0-----                                


D-----------------------------------------------------------------                          


A-7-----7-----7---9-----9-----9---7-----7-----7---3-----3-----0---                      


E-----------------------------------------------------------------


E-----------------------------------------------------------------                            


B---0-----0---------0-----0---------0-----0---------0-----0-------                            


G-----0-----0---0-----0-----0---0-----0-----0---0-----0-----0---0-                                


D-----------------------------------------------------------------                          


A-7-----7-----7---9-----9-----9---7-----7-----7---6-----6-----6---                      


E----------------------------------------------------------------- 


E-----------------------------------------------------------------                            


B---0-----0---------0-----0---------0-----0---------0-----0-------                            


G-----0-----0---0-----0-----0---0-----0-----0---0-----0-----0-----                                


D-----------------------------------------------------------------                          


A-7-----7-----7---9-----9-----9---7-----7-----7---3-----3-----0---                      


E-----------------------------------------------------------------


E---------3-------------3-------------3-------------3----


B---3-------3-----3-------3-----3-------3-----3-------3--


G-----0-------------0-------------0-------------0--------


D--------------------------------------------------------


A-------------2-3-----3-----3-------------2-3-----3-----3


E-3-----3---------------------3-----3--------------------


E---------3-------------3-------------3-------------3----


B---3-------3-----3-------3-----3-------3-----3-------3--


G-----0-------------0-------------0-------------0--------


D--------------------------------------------------------


A-------------2-3-----3-----3-------------2-3-----3-----3


E-3-----3---------------------3-----3--------------------


E---------3-------------3-------------3-------------3----


B---3-------3-----3-------3-----3-------3-----3-------3--


G-----0-------------0-------------0-------------0--------


D--------------------------------------------------------


A-2-----2-----2-3-----3-----3-------------2-3-----3-----3


E-----------------------------3-----3--------------------


E-----------------------------------                            


B---0-----0---------0-----0---------                           


G-----0-----0---0-----0-----0---0---                              


D-----------------------------------                          


A-7-----7-----7---9-----9-----9---7-                      


E-----------------------------------


E-0----------------------------------------------------------------------                            


B--0-------0-----0---------0-----0---------0-----0---------0-----0-------                            


G---0--------0-----0---0-----0-----0---0-----0-----0---0-----0-----0---0-                                


D----9-------------------------------------------------------------------                          


A-----7--7-----7-----7---9-----9-----9---7-----7-----7---6-----6-----6---                      


E------0-----------------------------------------------------------------                           


E-----------------------------------------------------------------                            


B---0-----0---------0-----0---------0-----0---------0-----0-------                            


G-----0-----0---0-----0-----0---0-----0-----0---0-----0-----0-----                                


D-----------------------------------------------------------------                          


A-7-----7-----7---9-----9-----9---7-----7-----7---3-----3-----0---                      


E-----------------------------------------------------------------


E-----------------------------------------------------------------                            


B---0-----0---------0-----0---------0-----0---------0-----0-------                            


G-----0-----0---0-----0-----0---0-----0-----0---0-----0-----0---0-                                


D-----------------------------------------------------------------                          


A-7-----7-----7---9-----9-----9---7-----7-----7---6-----6-----6---                      


E----------------------------------------------------------------- 


E-----------------------------------------------------------------                            


B---0-----0---------0-----0---------0-----0---------0-----0-------                            


G-----0-----0---0-----0-----0---0-----0-----0---0-----0-----0-----                                


D-----------------------------------------------------------------                          


A-7-----7-----7---9-----9-----9---7-----7-----7---3-----3-----0---                      


E-----------------------------------------------------------------


E---------3-------------3-------------3-------------3----


B---3-------3-----3-------3-----3-------3-----3-------3--


G-----0-------------0-------------0-------------0--------


D--------------------------------------------------------


A-------------2-3-----3-----3-------------2-3-----3-----3


E-3-----3---------------------3-----3--------------------


E---------3-------------3-------------3-------------3----


B---3-------3-----3-------3-----3-------3-----3-------3--


G-----0-------------0-------------0-------------0--------


D--------------------------------------------------------


A-------------2-3-----3-----3-------------2-3-----3-----3


E-3-----3---------------------3-----3--------------------


E---------3-------------3-------------3-------------3----


B---3-------3-----3-------3-----3-------3-----3-------3--


G-----0-------------0-------------0-------------0--------


D--------------------------------------------------------


A-2-----2-----2-3-----3-----3-------------2-3-----3-----3


E-----------------------------3-----3--------------------


E-----------------------------------                            


B---0-----0---------0-----0---------                           


G-----0-----0---0-----0-----0---0---                              


D-----------------------------------                          


A-7-----7-----7---9-----9-----9---7-                      


E-----------------------------------

[Em]Do [D]I [C]have the will?
Em D C G (D) C (The D is in brackets
Do I.....? as I really am not
G (D) C sure whether Tom plays
One More Mile it or not!)
One More[G] Mile   [D]         [C]
[Em]Do [D]I [C]have the will?
[Em]Do [D]I.[C]....?[G] [D] [C]
One More[G] Mile[D] [C]
One More[G] Mile[D] [C]
Repeat C G till the end
Phew, I'm knackered
Any positive/negative/spiteful comments:
ihateibiza@hotmail.com

Important: The song above is NOT stored on the Chordie server. The original song is hosted at membres.lycos.fr. Chordie works as a search engine and provides on-the-fly formatting. Chordie does not index songs against artists'/composers' will. To remove this song please click here.

Text color:
Chord color:
Chord grids: 
Font size:    
Page size: 

C D Em G
variations - click chord images

Login - add to songbook

Transpose chords

Tuning

Rating click stars to rate

Layout
Accuracy

SHARE PAGE  




You need to log in to post comments