Guitar Tabs, Chords and Lyrics


A Day Without Me   U2


A DAY WITHOUT ME      U2
album version

TUNE DOWN 1/2 STEP 
(with echo)

--------|--10--10----|--------|--10--10----|--------|--10--10----|--------|
--------|-----8---8--|--------|----8----8--|---6----|-----8---8--|--------|
--------|¥----------¥|--------|¥----------¥|---7----|¥----------¥|--------|
---10---|¥----------¥|---8----|¥----------¥|---7----|¥----------¥|---5----|
----8---|------------|---6----|------------|---5----|------------|---3----|
--------|------------|--------|------------|--------|------------|--------|

--------|-------8-10--|--17------14--|--15----------|---------------------|
--------|-----8-------|----121012----|----10-810----|--3------------------|
--------|---5---------|--------------|-----------7--|¥-2------------------|
---5----|-------------|--------------|--------------|¥-0--ooo-o-ooo-o-----|
---3----|-------------|--------------|--------------|---------------------|
--------|-------------|--------------|--------------|---------------------|

                                                       start verse Æ

                         A Day Without Me....
----------------------|---------------------|----------14--|--------------|
----------------------|---------------------|--3-121012----|----10-810----|
---------------------¥|----3----------------|--2-----------|-----------7--|
----5----------------¥|----3----------------|--0-----------|--5-----------|
----3--333-3-333-3----|----1----------------|--------------|--3-----------|
----------------------|---------------------|--------------|--------------|

|----------------|----------------|--------------|--1514--12--|--------------|
|----------------|----------------|--------------|------15----|-1210---------|
|¥¥---------7---¥|-----------9----|--12-9-11-7--¥|------------|-----11-9-----|
|¥¥-------------¥|----------------|-------------¥|------------|---------12-912
|--7-7-7--5---5--|--9-9-9--7---7--|--------------|------------|--------------|
|----------------|----------------|--------------|------------|--------------|

                                                  edge's to the point soloÆ
|--15-14--12/17-19-20--|----------     
|-------15-------------|----------
|----------------------|----------
|----------------------|---3------
|----------------------|---1------
|----------------------|----------    fade out...


This isn't the entire song written out in complete order of playing -- 
however, it should contain all the parts of the song and the parts are 
fairly recognizable so you'll know when to play them.
TRANSCRIPTI0N BY: STEVE FORD AND PETER SCHENK



Important: The song above is NOT stored on the Chordie server. The original song is hosted at membres.lycos.fr. Chordie works as a search engine and provides on-the-fly formatting. Chordie does not index songs against artists/composers will. To remove this song please click here.

This song is displayed as text-only. Transposing and tuning is only available for chordpro-songs.

Login - add to songbook

Rating click stars to rate

Layout
Accuracy

SHARE PAGE  




You need to log in to post comments