Chordie logo
content loaded from cache

Pride (In The Name Of Love)  U2

tabbed by: Martijn Van Weijle
Use delay (0.40 s), some reverb, and compressor.
Tune down 1/2 step to Eb.
Intro
NH NH NH NH NH NH
E---12------------12------------
B---12------------12-------------
G------------7-------------7-----
D------------7-------------7-----
A--------7-------------7---------
E-------------------------------- 

Part one (main riff)
v ^ v ^ v ^ v ^ v ^ v ^ v ^ v ^
E-----------------------------------------------------------------|--
B--12--12--12--12--12--12--12--12--12--12--12--12--12--12--X---X--|--
G--11--11--11--11--11--11--9---9---11--11--9---9---11--11--X---X--|--
D--9---9---9---9---9---9---9---9---9---9---9---9---9---9---X---X--|--
A-----------------------------------------------------------------|--
E-----------------------------------------------------------------|-- 

repeat 1 x
v ^ v ^ v ^ v ^ v ^ v ^ v ^ v ^
E-----------------------------------------------------------------|--
B--10--10--10--10--10--10--9---9--10--10---9---9--10--10---X---X--|--
G--9---9---9---9---9---9---9---9---9---9---9---9---9---9---X---X--|--
D--9---9---9---9---9---9---9---9---9---9---9---9---9---9---X---X--|--
A-----------------------------------------------------------------|--
E-----------------------------------------------------------------|-- 

v ^ v ^ v ^ v ^ v ^ v ^ v ^ v ^
E-----------------------------------------------------------------|--
B--10--10--10--10--10--10--9---9--10--10---9---9---10--10--X---X--|--
G--11--11--11--11--11--11--11--11--11--11--11--11--11--11--X---X--|--
D--9---9---9---9---9---9---9---9---9---9---9---9---9---9---X---X--|--
A-----------------------------------------------------------------|--
E-----------------------------------------------------------------|-- 

Part two
Let all the notes ring
E--------0---------|-------0---------|
B------------------|-----------0-----|
G------8-----8-----|-----8-------8---|
D----9---------9---|---7-------------|
A------------------|-----------------|
E--7---------------|-5---------------| 

Guitar solo
H H H H H H P
E--11^12^14-11^12^14-11^12^14^11-----------
B--------------------------------12-12-12--
G------------------------------------------
D------------------------------------------
A------------------------------------------
E------------------------------------------ 

repeat 8x
******************************************************************
Pride (In the name of love) (Capo on 1st fret)
by: Sergio Lucero, slucero@cipres.cec.uchile.cl
Intro chords A A G Em
  O[A]ne man come in the n[D]ame of love,
O[G]ne man come and [Em]go.
O[A]ne come here to just[D]ify,
O[G]ne man to overth[Em]row,
I[A]n the name of love, [D]
W[G]hat more in the [Em]name of love.
One man crawled on a barbed wire fence,
One man he resist.
One man washed on an empty beach.
One man betrayed with a kiss.
In the name of love,
What more in the name of love.
Early morning, April 4.
A shot rings out in the Memphis sky.
Free at last, they took your life,
But they could not take your pride.
In the name of love,
What more in the name of love.
EXACT CHORDS CHORDS WITH CAPO ON 7th FRET
A x x 7 9 10 7 D2 x x 0 2 3 0
G x 10 9 7 8 7 C x 3 2 0 1 0
Em x 7 9 9 8 7 Am x 0 2 2 1 0

Important: The song above is NOT stored on the Chordie server. The original song is hosted at membres.lycos.fr. Chordie works as a search engine and provides on-the-fly formatting. Chordie does not index songs against artists/composers will. To remove this song please click here.

A D Em G
variations - click chord images

Transpose chords

Tuning

Rating click stars to rate

Layout
Accuracy

SHARE PAGE  

You need to log in to post comments

bigbadbf (report)

Capo 1st Fret