Guitar Tabs, Chords and Lyrics


J. Swallow   U2


1------------------------------------------







2--------------5---------------------------







3------------------------4-------------x--x


4---2----------------------------2----x--x-


5------------------------------------------


6------------------------------------------


1---------


2---------




[3---9b11--]                                                                                             


4---------
5---------
6---------




Intro (let notes ring):


                                                                                 


1---0--------------------------------------------------------0--
2-------------2----------------------------------------------0--
3-----------------------2-------------------------2/4-----------  (twice)
4-------------------------------------------------2/4----------
5------------------------------------------0--------------------
6---------------------------------------------------------------
1---0----------------------------------------------------0----2----0------
2----------2----------------------------------------0-------------------0-
3---------------------2-----------------2/4-------------------------------  (twice)
4---------------------------------------2/4-------------------------------
5---------------------------------0---------------------------------------
6-------------------------------------------------------------------------




(then the vocals come in)


                                                                                 


1-------------------------------------------------------------
2----------------------0----0------------------------0----3---
3-------------0-------------3------------------------2----2---
4---2-----------------------2------------------------2----0---
5----------------------------0------------------------0-------
6-------------------------------------------------------------




(ending)


                                                                                 


1-------
2-------
3-------
4-----------
5-----------
6-----------


Important: The song above is NOT stored on the Chordie server. The original song is hosted at membres.lycos.fr. Chordie works as a search engine and provides on-the-fly formatting. Chordie does not index songs against artists'/composers' will. To remove this song please click here.

This song is displayed as text-only. Transposing and tuning is only available for chordpro-songs.

Login - add to songbook

Rating click stars to rate

Layout
Accuracy

SHARE PAGE  




You need to log in to post comments