Guitar Tabs, Chords and Lyrics


Promenade  U2

1---<12>--------------------------------------              


2-------------------<12>----------------------              


3--------------------------------------<12>---           


4---------------------------------------------


5---------------------------------------------


6---------------------------------------------


1------------------------------


2---<12>---<12>---<12>---<12>--


3---<12>---<12>---<12>---<12>--


4------------------------------


5------------------------------


6------------------------------


1---15--------------------15-----------------------------------  


2-------------13-----------------------13-------------------13-   


3------------------------------------------------12------------  


4--------------------------------------------------------------


5--------------------------------------------------------------


6--------------------------------------------------------------


1---12--12--12--12--12--12------10--10--10--10--10--10-


2---12--12--12--12--12--12------10--10--10--10--10--10-


3------------------------------------------------------


4------------------------------------------------------


5------------------------------------------------------


6------------------------------------------------------


1---12----------------------------------------------        


2--------------12---------------------12\10--10--12-        


3-------------------------12----------12\10--10--12-        


4---------------------------------------------------


5---------------------------------------------------


6---------------------------------------------------


1---12---------------------12-------------------------12--------------  


2----------12-----------------------12---------------------12---------    


3------------------12------------------------12-------------------12--


4---------------------------------------------------------------------


5---------------------------------------------------------------------


6---------------------------------------------------------------------

E[C]arth, sky, sea, and rain[F-C]
Here she comes back again[F-C].
Men stroll, sneak the hal[F-C]l
Words that build or destr[F-C]oy.
Dirt dry bones a[F]nd st[C]ones.[F-C]
B[C]arbed wire fence cut me [F-C]down,
I'd like to be around.
In a spiral staircase
to the higher gr[Am]ound.[G]
And I like a fir[Am]ewall and exp[G]lode.
Roman ca[F]ndlelightning lights [C]up the sky.
In cracked streets, trample underfoot
Sidestep, sidewalk.
I see you stare into space.
Have I gotten closer now,
behind the face.
Tell me, will you dance with me,
and turn me around tonight.
Up though the spiral staircase to the higher ground.
See slide show, see side town,
coca-cola, football, radio radio radio . . .

Important: The song above is NOT stored on the Chordie server. The original song is hosted at membres.lycos.fr. Chordie works as a search engine and provides on-the-fly formatting. Chordie does not index songs against artists'/composers' will. To remove this song please click here.

Text color:
Chord color:
Chord grids: 
Font size:    
Page size: 

Am C F G
variations - click chord images

Login - add to songbook

Transpose chords

Tuning

Rating click stars to rate

Layout
Accuracy

Jango Player

SHARE PAGE  




You need to log in to post comments