Chordie logo

Blackbird     Beatles








Blackbird  by John Lennon and Paul McCartney

   E--------------------   |--------------------------------------------
   B---0-----1-----3----   |12-----12------12-----12-----12------12-----
3  G------0-----0-----0-  4|----0--------------0------0--------------0--
4  D--------------------  4|--------------------------------------------
   A---------0-----2----   |10---------10---------10---------10---------
   E---3----------------   |--------------------------------------------

  ||--------------------   |--------------------------------------------
  ||---0-----1-----3----   |12-----12------12-----12-----12------12-----
3 ||.-----0-----0-----0-  4|----0--------------0------0--------------0--
4 ||.-------------------  4|--------------------------------------------
  ||---------0-----2----   |10---------10---------10---------10---------
  ||---3----------------   |--------------------------------------------

   E---0-----3-----2-----5-----3------3-----3-----3----3-----3---------
   B-------------------------------------------------------------------
4  G------0-----0-----0-----0------0-----------0-----0----------0------
4  D---------------0------------2--------2--------1-------1------------
   A---3-----4-----------6---------------------------------------------
   E-------------------------------------------------------------------

   E---2-----3--------------------------------------|
   B---------------5----5-----5----4----4----4------|
3  G------0-----0-----0---------0-----0---------0---|
2  D---0--------------------------------------------|
   A---------4-----3-------3-------3------3---------|
   E------------------------------------------------|

    E--------------------------------------------------------------
    B---3------3-----3----2----2-----2----1----1---1---------------
3   G--------0---------0-----0---------0-----0-------0-------------
2   D-------------------------------------0------0-----------------
    A---2---------2-------0-------0--------------------------------
    E--------------------------------------------------------------

    E-------------------0------------------------------------------
    B---0----0-----0----------3-----2----2---2----1-----1-----1----
4   G------0---------0-----0-----0-----0-------0-----0-----------0-
4   D---------------------------------------------0--------0-------
    A-------------------3-----2-----0------0-----------------------
    E---3-------3--------------------------------------------------

    E-------------------||  -----------------    -5-----3-----1---------
    B--0----0-----0-----||  --0----0-----0---    -------------------5---
2   G-----0---------0--.||2 -----0---------0-  4 ----0-----0-----0-----0
4   D------------------.||4 -----------------  4 -3-----2-----0---------
    A-------------------||  -----------------    -------------------3---
    E--3-------3--------||  --3-------3------    -----------------------

    E--------------------------------|-5-----3-----1---------------
    B--3---------3-----5---------5---|-------------------5---------
 4  G-------0---------------0------0-|----0-----0-----0-----0------
 4  D-----0---------0-----0----------|-3-----2-----0---------------
    A--1------1--------3------3------|-------------------3---------
    E--------------------------------|-----------------------------

    E--------------------------------     ---------------------------
    B--3---------3-----3---------2---     --1-----1-----1------------
 4  G-------0---------------0------0-  2  -----0-----------0---------
 4  D-----0---------0-----0----------  4  --0--------0---------------
    A--1------1--------0------0------     ---------------------------
    E--------------------------------     ---------------------------

   (one blank 3/4 measure, one blank 4/4, and one blank 2/4)


    E--------------------|
    B--0-----1-----3-----|
 3  G-----0-----0-----0--|
 4  D--------------2-----|
    A--------0-----------|
    E--3-----------------|

    E---------------------------|---------------------------------|
    B--12---12--12---12---------|-12-----------12-----------------|
 4  G-----0--------0----0-/-/-/-|----/-/-/-/-/-----/-/-/-/-/------|
 4  D---------------------|-|-|-|----|-|-|-|-|-----|-|-|-|-|------|
    A--10-----10-----10---|_|_|-|-10-|_|_|_|_|-10--|_|_|_|_|------|
    E---------------------------|---------------------------------|
                                 (tie to 10, brush strokes on G)

    E-----------------------------|
    B--12-----12-----12-----------|
 4  G------/------/------/---/-/--|
 4  D------|------|------|---|-|--|
    A--10__|--10__|--10__|---|_|--|
    E-----------------------------|

    E--------------------|--0----------------|    ---------------------
    B--0-----1-----3-----|--------3-----2----|    --1----1-----1-------

 3  G-----0-----0-----0--|-----0-----0-----0-|  2 -----0---------0-----
 4  D--------------------|-------------------|  4 ---------------------
    A--------0-----2-----|--3-----2-----0----|    --0-------0----------
    E--3-----------------|-------------------|    ---------------------

      (blank 3/4 measure, blank 3/2)

    E-----------------------------|--------------------------------|
    B--3----3---3----2----2---2---|-1-----1---1-----0----0-----0---|
 4  G-----0-------0-----0-------0-|----0---------0-----0---------0-|
 4  D-----------------------------|-0-------0----------------------|
    A--2------2------0------0-----|--------------------------------|
    E-----------------------------|-----------------3-------3------|

    ||---0----------------------------|-----------------------------||
    ||---------3-----2-----2-----2----|-1----1---1----0----0----0---||
 4  ||.-----0-----0-----0-----------0-|----0-------0-----0--------0.||
 4  ||.-------------------------------|-0------0-------------------.||
    ||---3-----2-----0--------0-------|-----------------------------||
    ||--------------------------------|---------------3-------3-----||

    E--------------------------------||
    B--1----1----1-------------------||
    G-----0--------0---/------/------||
    D--0------0--------|------|------||
    A------------------|------|------||
    E--------------------------------||
                       (brush strokes on G chord)





Important: The song above is NOT stored on the Chordie server. The original song is hosted at perso.efrei.fr. Chordie works as a search engine and provides on-the-fly formatting. Chordie does not index songs against artists/composers will. To remove this song please click here.

This song is displayed as text-only. Transposing and tuning is only available for chordpro-songs.

Rating click stars to rate

Layout
Accuracy

SHARE PAGE  

You need to log in to post comments