Guitar Tabs, Chords and Lyrics


Stairway   Various Artists




STAIRWAY TO HEAVEN - Led Zeppelin
=================================

Intro.
 
--------5-7-----7-8-----8-2-----2-0----------0------------------------------
------5-----5-------5-------3-------1---1------1----------------------------
----5---------5-------5-------2-------2----------2-0--2-2-------------------
--7-------6-------5-------4-------3-----------------------------------------
---------------------------------------------------2--0-0---0--/8-7-0-------
----------------------------------------------------------------------------
(repeat)
 

      Cmaj    Dmaj    Fmaj7 Aadd9?    Cmaj    Gmaj  Dsus4/D
 
------------0-2-----2-0-----0-----------------3-----3-3-2-2-2---------------
----------------3-------1-----0-------1-----1---0-----3-3-3-3---------------
----------0-------2-------2-----2-------0---------0-------------------------
--------2-----0-------3-------------------2-----------0---------------------
--0-2-3-----------------------0---0-2-3------------------------------------- 
----------------------------------------------3-----------------------------
 
  Repeat, but 2nd time go from  here  ^ to section below
 

  Cmaj     Dmaj    Fmaj7
 
----------------2-0--0-0----------------------------------------------------
--------1-----3---1--1-1----------------------------------------------------
------0-----2-----2--2-2----------------------------------------------------
----2-----0-------3--3-3----------------------------------------------------
--3-------------------------------------------------------------------------
----------------------------------------------------------------------------
 

  Amin7   Dadd9->Dmaj                         Em D  C  D
            
--0-------0-2---------------------------3--0--7--5--3--5--------------------
--1-------3-3---------------------------1--1--8--7--5--7--------------------
--0-------2-2---------------------------0--0--9--7--5--7--------------------
--2-------0-0---------------------------2--2----0--0--0---------------------
--0-------------------------------------0--0--------------------------------
----------------------------------------------------------------------------
                                        ^^^^ Strum in time 
  "Oh....... and it makes me wonder..."
 

     Cmaj            Gmaj           Amin
 
--------------------------------------------------------------0-------------
-------------------1-----------0----0^1-----------------1-------------------
-----------0----------------0-----------2-----------------------------------
-------2----------------0-----------------2---------------------------------
-0-2-3---------------2--------------0---------------------------------------
----------------------------------------------------------------------------
 
       "if there's a bussle in your hedgerow, don't be alarmed now"


Sorry, no solo.  BTW, the chords under the solo are Aminor, G and F major


Mr.Scary (Gary Chapman)
----------------------------
s892011@minyos.xx.rmit.oz.au


Important: The song above is NOT stored on the Chordie server. The original song is hosted at perso.efrei.fr. Chordie works as a search engine and provides on-the-fly formatting. Chordie does not index songs against artists/composers will. To remove this song please click here.

This song is displayed as text-only. Transposing and tuning is only available for chordpro-songs.

Login - add to songbook

Rating click stars to rate

Layout
Accuracy

SHARE PAGE  




You need to log in to post comments