Guitar Tabs, Chords and Lyrics


Dontcry   Guns N'Roses







This is the main guitar line.  It, or minor variations of it, repeats 
throughout the song.
 
    Am            Dm            G            
E |-------0-------------1---------------3-----------------------|
B |---------1---------3---3---------------3---------------------|
G |-----2-----2-----2-------2---------0-----0-------0-----0-----|
D |---2---------0-0-----------------0-------------0-----0-------|
A |-0-------------------------0---2-----------0-3-----2-----3-2-|
E |-----------------------------3-------------------------------|


The chorus is basically: 

F  G  Am


And, according to Guitar for the Practicing Musician, the loud
distorted chords in the middle of the song are:

C5  G/B  A5  G5  F5  G5  A5


----------------------------------------------------------------------------
Howard C. Huang  | Mather House 120     | Internet : hhuang@husc.harvard.edu
Class of 1992    | 10 Cowperthwaite St. | Bitnet   : hhuang@husc.bitnet
Computer Science | Cambridge, MA 02138  | UUCP     : ...!harvard!husc!hhuang
----------------------------------------------------------------------------



Important: The song above is NOT stored on the Chordie server. The original song is hosted at perso.efrei.fr. Chordie works as a search engine and provides on-the-fly formatting. Chordie does not index songs against artists/composers will. To remove this song please click here.

This song is displayed as text-only. Transposing and tuning is only available for chordpro-songs.

Login - add to songbook

Rating click stars to rate

Layout
Accuracy

SHARE PAGE  




You need to log in to post comments