Guitar Tabs, Chords and Lyrics


Easter   Marillion
















Here is my transcription of a song off of Seasons End...it's in 3/4 time.


      (Rhythm 1)  -arpeggio-

E---------3----------2-(3)-2-----------0-----------0-----
B-----------3----------------3-----------0-----------1---
G-------------0----2-----------2-----------0-----0-----0-
D-------0--------0-------------------2---------2--------- repeat 4x
A-----2----------------------------2---------3-----------
E---3----------------------------0-----------------------


      (Chorus)

E---------2-----------3------------3-----------0-----------------------0------
B-------3---3-----------1------------1-----------0---------3-------------1----
G-----2-------2-----0-----0------2-----2-----------0---------2-------0-----2--
D---0-------------2-----------2--------------2-----------0-----0---2----------
A---------------3-----------0--------------2-----------0---------3------------
E----------------------------------------0-----------2------------------------




E---------0-----------3------I-------2-(3)-2-----------3-----------3----------
B-----------3-----------3----I-----3---------3-----------1-----------1--------
G-------------0-----------0--I---2-------------2-----0-----0-----2-----2------
D-------0-----------0--------I-0-------------------2-----------2--------------
A-----2-----------2----------I-------------------3-----------0-------------2--
E---3-----------3------------I-------------------------------------------0----


                                                 (post-chorus...)

E-----0-----------------------0------II-------3-----------2-----------0-------
B-------0---------3-------------1----II-----3---3-------3---3-------3---3-----
G---------0---------2-------0-----0--II---2-------2---2-------2---2-------2---
D---2-----------0-----0---2----------II-0-----------0-----------0-----------0-
A-------------0---------3------------II---------------------------------------
E-----------2------------------------II---------------------------------------




E-------2-------
B-----3---3-----
G---2-------2--- repeat this figure 1x,
D-------------0- then repeat Rhythm 1
A---------------
E---------------




      (Rhythm 2)  -strum-




E----2----I----3----I----2----I----3----II
B----3----I----3----I----3----I----3----II
G----2----I----0----I----4----I----0----II   etc...repeat 4x,
D----0----I----2----I----4----I----2----II then for duration of solo...
A---(0)---I----2----I----2----I----3----II
E---------I----0----I---------I---------II




					Anyway, this is most of the rhythm guitar...you should be able to
figure out the rest by listening to it.  If I get enough requests, I'll
take the time to transcribe the solo for you, it typically showcases Steve
Rothery's ability to make his guitar sing (in much the same manner he does
in "Kayleigh"), and is a wonderful exercise in melodic playing!


     Also, if anyone is a Marillion freak, perhaps you'd interested in the
Rhythm 1 of "The King of Sunset Town" which goes like this...



E---------0-----------0-----------0-------      
B-------1---1-------1---1-------1---1-----      
G-----3-------3---3-------3---3-------3---      
D---3-----------2-----------0-----------2- etc. 
A-----------------------------------------       
E-----------------------------------------      


     Perhaps more from this album and their others later!


																																Later much!
																																									Brandon






Important: The song above is NOT stored on the Chordie server. The original song is hosted at perso.efrei.fr. Chordie works as a search engine and provides on-the-fly formatting. Chordie does not index songs against artists'/composers' will. To remove this song please click here.

This song is displayed as text-only. Transposing and tuning is only available for chordpro-songs.

Login - add to songbook

Rating click stars to rate

Layout
Accuracy

SHARE PAGE  




You need to log in to post comments