Tusen Bitar

Black Ingvars

 EDC
|-------7---------------5-----------------3------\
|-------9---------------7-----------------5-------\
|-------9---------------7-----------------5--------\
|-----9---------------7-----------------5----------/  x3
|---7---------------5-----------------3-----------/
|-0----------------------------------------------/

 GCE
|-3----------3--------------------7----------7----------------
|---3----------5------------------9----------9----------------
|-----4----------5--------------9---9------9---9--------------
|-----------------------------9------9---9------9-------------
|------------3--------------7----------7----------7-----------
|-3-------------------------0----------0----------------3-2-0-

 EDC
|0--------------------------2------------0------------\
|0--------------------------3------------1-------------\
|1--------------------------2------------0--------------\
|2--------------------------0------------2--------------/ x3
|2---------------------------------------3-------------/
|0---------------------------------------------3-2-0--/

 GBm7
|-3--------------2----\
|-3--------------0-----\
|-0--------------2------\
|-0--------------1------/Intro
|-2--------------2-----/
|-3-------------------/


Fattas melodi slingan på den sista biten
































Bm7 C D E G
variations - click chord images
Transpose chords:
Tuning:
Cool service:
View: Size:
A  A  A
Rating:
Layout:
  • Currently 0/5 Stars.
  • 1
  • 2
  • 3
  • 4
  • 5
 
Accuracy:
  • Currently 0/5 Stars.
  • 1
  • 2
  • 3
  • 4
  • 5
 
click stars to rate
Chordie recommends:
Learn to play this song & others via video guitar lessons at JamPlay.com
Songbook:
Login to add this song to your songbook
Support the artist
Preview/buy this song
MSN Music
Why this non-profit ad?

 
login to add comments/video/corrections