""; ?> sevilla by Isaac Albeniz - guitar chords, guitar tabs and lyrics - chordie

sevilla

Isaac Albeniz



Sevilla
Sevillanas (De La 'Suite Espanola')
Music by Issac Albeniz
Guitar Transcription by F. Tarrega.  Revised by Miguel Llobet

Tablature by Jeff Lo (loj@iia.org)

h  = hammer
p  = pulloff
/  = slide up
\  = slide down
^  = harmonic
() = grace note

tuning: DGDGBE (low to high)

 |--1-----------2-----------3----------|--1-----------2-----------3----------|
 1                                        %
E|--7-----7-----7-----7-----8-----8----|-------------------------------------|
B|--8-----8-p7--------------------7----|-------------------------------------|
G|--7----------10-----9-p8--7--------7-|--repeat 1---------------------------|
D|--------------------------7----------|-------------------------------------|
G|--0-----------------7-----------7----|-------------------------------------|
D|-------------------------------------|-------------------------------------|

 3                                          ----3---
E|-15----------------------14-------10-|-12-12h14p12-10-----------8----------|
B|--0----------------------10----------|--0-----------------------7-------10-|
G|-------12h14-12----12----------------|--------------------------------7----|
D|--0----------------------10----------|------------------^12-----7----------|
G|--0-----------------------0----------|--0-----------------------0----------|
D|--------------------------------0----|-------------------------------------|

 5
E|--7-h8h10----------------------------|--------------------3-p0--2----------|
B|-------------------------------------|--0-----3-h5--3-h5--3-----3----------|
G|--------------------4-h7--5-h7--5-h7-|--0-----4-----4-----4-----5----------|
D|--------------0-----------0-----0----|--------0-----0-----0-----0----------|
G|--0-----------------------0----------|--0-----------------------0----------|
D|-------------------------------------|--------------------------------0----|

 7
E|-------------------------------------|-------------------------------------|
B|-------------------------------------|-------------------------------------|
G|--repeat 3---------------------------|--repeat 4---------------------------|
D|-------------------------------------|-------------------------------------|
G|-------------------------------------|-------------------------------------|
D|-------------------------------------|-------------------------------------|

 9
E|-------------------------------------|--------------------3-p0--2-----0----|
B|-------------------------------------|--0-----3-h5--3-h5--3-----3--------3-|
G|--repeat 5---------------------------|--0-----4-----4-----4-----5----------|
D|-------------------------------------|--------0-----0-----0-----0----------|
G|-------------------------------------|--0-----------------------0----------|
D|-------------------------------------|-------------------------------------|

11
E|--3-----------------------1----------|-------------------------------------|
B|--------3-h4--3-----3--------------1-|--3-----3-h4--6-----------4--------1-|
G|--------3-----------------2----------|--------------------------2----------|
D|--------5-----------------------3----|--3-----------------3----------------|
G|--0----------------------------------|--3----------------------------------|
D|--------------------------3----------|--------------------------3----------|

13
E|-----------------3--5-p3-------------|-------------------------------------|
B|--3-h4--3--4--6-----------6-p4--3----|-------------------------------------|
G|-----------------------------------5-|--repeat 13--------------------------|
D|--3-----------------------3----------|-------------------------------------|
G|--3----------------------------------|-------------------------------------|
D|-------------------------------------|-------------------------------------|

15
E|-------------------------------------|-------------------------------------|
B|--3-----------------------3-----3-p1-|--0-----------------1-/3--4-----6-p4-|
G|-------------------------------------|--------0-h1--0-----------0-----2----|
D|--3-----3-h5--3-----3-----4----------|--3----------------------------------|
G|--3-----------------------2----------|--0-----------------------5----------|
D|-------------------------------------|-------------------------------------|

17
E|--------------------------------5-h7-|--------7-----7-----7-----8-----8----|
B|--3-----------3---/12h13-12-----7----|--8-----8-p7--------------------7----|
G|--4-----4-h5--------------------5----|--7----------10-----9-p8--7--------7-|
D|--0----------------------------------|--9-----------------------7----------|
G|-------------------------------------|--0-----------------7-----------7----|
D|--------------------------0----------|-------------------------------------|

19
E|-------------------------------------|--7----------------------------------|
B|-------------------------------------|--8-----------0-----------0----------|
G|--repeat 1---------------------------|--7-----------0-----5-h8--7-----4-h6-|
D|-------------------------------------|--------0-h4-------------------------|
G|-------------------------------------|--0----------------------------------|
D|-------------------------------------|-------------------------------------|

21
E|--3-----------7----------10----------|-15----15----15----15----15----15----|
B|--3-----3-h7--8-----8h11--0----------|-12----12p11-12----12p11-12----12p11-|
G|-------------------------------------|--0-----------0-----------0----------|
D|--------------------------------0----|-------------------------------------|
G|-------------------------------------|-------------------------------------|
D|-------------------------------------|-------------------------------------|

23                                   @
E|-------------------------------------|--15---------------------------------|
B|-------------------------------------|--12---------------------------------|
G|--repeat 22--------------------------|---0---------------------------------|
D|-------------------------------------|-------------------------------------|
G|-------------------------------------|--------0--0--0--0--0--0--0--0--0--0-|
D|-------------------------------------|-------------------------------------|

25
E|-------------------------------------|-11----------------------10----------|
B|-------------------------------------|--8-----------------------9-------11-|
G|-------------------------------------|--8----------------------------------|
D|-------------------------------------|--------8h10--8-----8-----------8----|
G|--0-----0--0--0-----0--0--0-----0----|--8-----------------------8----------|
D|-------------------------------------|-------------------------------------|

27     ---3--
E|--8--8h10p8--------------------------|-------------------------------------|
B|--8----------11-----------9--------6-|--8--9-11----------------------------|
G|--------------------------7----------|--------------------0-h3--1-h3--1-h3-|
D|--------------------8----------------|--8----------------------------------|
G|--8----------------------------------|--8-----------------------3----------|
D|--------------------------8----------|-------------------------------------|

29
E|-------------------------------------|-------------------------------------|
B|-----------1-----1--4-p1--3----------|-------------------------------------|
G|--0-----3-----3-----------1----------|--repeat 26--------------------------|
D|-------------------------------------|-------------------------------------|
G|--------------------------3-----3/(8)|-------------------------------------|
D|--1----------------------------------|-------------------------------------|

31     ---3--
E|--8--8h10p8--------------------------|-------------------------------------|
B|--8----------11----------10--------8-|--7--8-10----------------------------|
G|-------------------------------------|--7--------------------2-----2-----2-|
D|--------------------8----11----------|--7-----------------4-----5-----5----|
G|--8-----------------------8----------|--------------------------2----------|
D|-------------------------------------|--0----------------------------------|

33
E|-------------------------------------|-10-----------------------9----------|
B|--------------------3-p0--2----------|--7-----------------------8-------10-|
G|--------2-h4--2-h4--2-----2----------|--7----------------------------------|
D|--4-----4-----4-----4-----5----------|--------7-h9--7-----7-----------7----|
G|--------------------------------2----|--------------------------7----------|
D|--0----------------------------------|--0----------------------------------|

35      --3--
E|--7---7h9p7--------------------------|-------------------------------------|
B|--7----------10-----------8--------5-|-------------------------------------|
G|--------------------------6----------|--repeat 32--------------------------|
D|--------------------7----------------|-------------------------------------|
G|-------------------------------------|-------------------------------------|
D|--0-----------------------7----------|-------------------------------------|

37
E|-------------------------------------|-10-----------------------9----------|
B|-------------------------------------|--7-----------------------8-------10-|
G|--repeat 33--------------------------|--7-----------------------6----------|
D|-------------------------------------|--------7--8--7-----7----------------|
G|-------------------------------------|--------------------------8----------|
D|-------------------------------------|--0----------------------------------|

39
E|--5----------------10-----9--------5-|--5----------------10-----8----------|
B|--7-----------------------8----------|--7-----------------------8----------|
G|--------2-h3--2-----7-----6----------|--------2-h3--2-----7----------------|
D|-------------------------------------|-------------------------10--------7-|
G|--------------------------8----------|--------------------------8----------|
D|--0----------------------------------|--0----------------------------------|

41
E|-------------------------------------|-------------------------------------|
B|-------------------------------------|-------------------------------------|
G|----------10----10-------------------|-----------7-----7-----------------0-|
D|-10-12-13----13----13-12-10-12-10--8-|--7--8-10----10----10--8--7--8--7----|
G|-------------------------------------|-------------------------------------|
D|-------------------------------------|-------------------------------------|

43
E|-------------------------------------|--------2-----5----10----11----------|
B|-------------------------------------|--------3-----3-----7-----8-----5----|
G|-----0--2--3--5--3--2--0-----0-------|--------2-----2-----7-----8-----3----|
D|--4-----------------------3-----3--1-|--0-----------4-----0-----------4----|
G|-------------------------------------|--7-----------------------------6----|
D|-------------------------------------|--0----------------------11----------|

45
E|--------2-----5----10----11----------|--2-----2-----2-----2-----3-----3----|
B|--3-----3-----7-----7-----8-----5----|--3-----3-p2--------------------2----|
G|--2-----2-----7-----7-----8-----3----|--2-----------5-----4--3--2----------|
D|--4-----------7-----0-----------5----|--------------------------2--------2-|
G|-------------11-----------------6----|--------------------5-----------5----|
D|--0----------------------11----------|--0----------------------------------|

47
E|--2-----2-----2-----2-----3-----3----|--2----------------------------------|
B|--3-----3--2--------------------2----|--3----------------------------------|
G|--2-----------5-----4--3--2--------2-|--2----------------------------------|
D|--------------------------2----------|--------0--0--0--0--0--0--0--0--0--0-|
G|--------------------2-----------2----|-------------------------------------|
D|--0----------------------------------|-------------------------------------|

49                                                         D.C. al % hasta @
E|-10----10-10-10----10-10-10----10-10-|-15-----7-----7-----7-----8-----8----|
B|--7-----------7-----------7----------|--0-----8-p7--------9-p8--------7----|
G|-------------------------------------|--0----------10-----------7--------7-|
D|-10----------10----------10----------|--0-----------------------7----------|
G|-------------------------------------|--0-----------------7-----------7----|
D|--0-----------0-----------0----------|-------------------------------------|

51
E|-12----------------------------------|-------------------------------------|
B|-12----------------------------------|-------------------------------------|
G|--0-----0--0--0--0--0--0--0--0--0--0-|--0-----0--0--0-----0--0--0-----0----|
D|--------5--5--5--5--5--5--5--5--5--5-|--5-----5--5--5-----5--5--5-----5----|
G|--------0--0--0--0--0--0--0--0--0--0-|--0-----0--0--0-----0--0--0-----0----|
D|--------5--5--5--5--5--5--5--5--5--5-|--5-----5--5--5-----5--5--5-----5----|

53
E|-------------------------------------|
B|-------------------------------------|
G|--0----------------------------------|
D|--5----------------------------------|
G|--0----------------------------------|
D|--5----------------------------------|

54
E|-------------------------------------|-------------------------------------|
B|--------------------------6----9/(13)|-13-------------11-p9--8--6-h8--9--6-|
G|--------5-----7-----8----------------|-------------------------------------|
D|-------------------------------------|-------------------------------------|
G|-------------------------------------|-------------------------------------|
D|-------------------------------------|-------------------------------------|

56
E|-------------------------------------|--------------------1-----------1--4-|
B|--8-h9--8--6-------------------------|-----------------------4--3--4-------|
G|--------------8h10--8--7-----7--8/12-|-12-----------5----------------------|
D|-------------------------10----------|--------------6----------------------|
G|-------------------------------------|-------------------------------------|
D|-------------------------------------|-------12----------------------------|
                                     ^grace
58  --3--                   --3--
E|--3h4p3-1-----------1--3--1h3p1------|-------------------------------------|
B|--1--------4--3--4--------------4--3-|-------------------------------------|
G|--------------------------3----------|--------------5----------------------|
D|--0----------------------------------|--------------6----------------------|
G|--------------------------0---------(1)/5-----0--------0--1--3--5--1--0----|
D|-------------------------------------|--------------3--------------------3-|

60
E|-------------------------------------|--8-----------------------1-----4/(11)
B|------------------------^12----------|--8----------------------------------|
G|--------0-h5--5-h8--8/12^12----------|--8-----5-----7-----8----------------|
D|------------------------^12----------|-------------------------------------|
G|--0-----------------------------0----|-------------------------------------|
D|--5----------------------------------|-10----------------------------------|

62                         ---3--
E|-11-------------10--8--6-8h10p8-6----|--6-h8-p6-----------------------8----|
B|-----------------------------------9-|-----------9--8-----6-/8--9-11-----9-|
G|-------------------------------------|-------------------------------------|
D|-------------------------------------|-------------------------------------|
G|-------------------------------------|-------------------------------------|
D|-------------------------------------|-------------------------------------|

64  --3--                   --3--         --3--
E|-------------------------------------|-------------------------------------|
B|--8h9p8----8--------------6h8p6----6-|-------------------------------------|
G|-------10-----8-----7--8--------8----|--7h8p7----8--7-------------10-12-13-|
D|-------------------------------------|-------10----------10-12-13----------|
G|-------------------------------------|-------------------------------------|
D|-------------------------------------|-------------------------------------|

66----3--- ---3-- --3-- --3-- --3-- --3--
E|---------------------------------------|-------------------------------------|
B|---------------------------------------|--------------3----------------------|
G|10h12p10-8h10p8-7h8p7-5h7p5-3h5p3-1h3p1|--0-----------5----------------------|
D|---------------------------------------|--------0----------------------------|
G|---------------------------------------|--0--------------------0--2--4--5--4-|
D|---------------------------------------|--------------0--2--4----------------|

68
E|----------------------10--8----------|-------------------------------------|
B|--------0-h3--3-/8-12-----7----------|----(3)/8-----8-----8-----8--------8-|
G|--------------------------9-p7-------|--0----------------------------------|
D|-------------------------------10-p7-|-------------------------------------|
G|-------------------------------------|--0----------------------------------|
D|--0-----------------------0----------|-------------------------------------|

70                                                                --3--
E|-------------------------------------|-------------------------------------|
B|--8-----------6--------------6--8--9-|--8----h9-p8--6-----3--6--4h6p4-3----|
G|--------------7--------7--8----------|--------------7--------------------5-|
D|--------6----------------------------|--------6-----------------3----------|
G|-------------------------------------|-------------------------------------|
D|--6----------------------------------|--6----------------------------------|

72
E|-------------------------------------|-------------------------------------|
B|------------------------^12----------|-^5-(3)/8-----8-----8-----8--------8-|
G|--4-------/7--7---------^12----------|-^5----------------------------------|
D|--------0-----9---^12----------^5----|-------------------------------------|
G|--0----------------------------------|-------------------------------------|
D|-------------------------------------|-------------------------------------|

74                          ------7------
E|--------------------------------6h8p6---|
B|--8-----------6-----------6-8-9-------9-|
G|--------------7-----7-h8----------------|
D|--------6-------------------------------|
G|----------------------------------------|
D|--6-------------------------------------|

75                          -----6-----
E|--------------------------1h3p1------|-------13-13-16----10-10-13-----7--7-|
B|--8-----9--8--6-----3--4--------4p3p1|--0----------------------------------|
G|--------------7----------------------|--0----10----13-----7----10----------|
D|--------6----------------------------|--------------------------------9----|
G|-------------------------------------|-------------------------------------|
D|--6----------------------------------|-------------------------------------|

77
E|-10-----7--7--8-----1--1--4----------|--3----------------------------------|
B|--------------------------------3--3-|--------6--6--9--9-------------------|
G|--7-----------5-----------1----------|--0-----------------7--7-10-10--4--4-|
D|--------9-----------3-----------0----|--------3-----6----------------------|
G|-------------------------------------|--------------------7----10-----4----|
D|-------------------------------------|-------------------------------------|

79
E|-------------------------------------|-------------------------------------|
B|-------------------------------------|-------------------------------------|
G|--7--7--------5--5-------------------|--0----------------------------------|
D|--------6--6--------3--3--6--6--0--0-|-------------------------------------|
G|--7-----------5----------------------|--0-----0--0--0--0--0--0--0--0--0--0-|
D|--------6-----------3-----6-----0----|-------------------------------------|

81
E|-------------------------------------|
B|-------------------------------------|
G|-------------------------------------|
D|-------------------------------------|
G|--0----------------------------------|
D|-------------------------------------|

82
E|-------------------------------------|-------------------------------------|
B|--------------------------6-----9----|-13-------------11-p9--8--6-h8--9--6-|
G|--------5-----7-----8----------------|-------------------------------------|
D|-------------------------------------|-------------------------------------|
G|-------------------------------------|-------------------------------------|
D|-------------------------------------|-------------------------------------|

84
E|-------------------------------------|
B|--8-h9--8--6-------------------------|
G|--------------8h10--8--7--5--7--8/12-|
D|-------------------------------------|
G|-------------------------------------|
D|-------------------------------------|
                                     ^grace
85                                        --3--                   --3--
E|-----------------------------------4-|--3h4p3----------------3--6h8p6------|
B|--------------------6--4--3--4--6----|--------6--4--3--4--6-----------4--3-|
G|-12-----------5----------------------|--5-----------------------3----------|
D|--------0-----6----------------------|--0----------------------------------|
G|-------------------------------------|--------------------------0----------|
D|-------------------------------------|-------------------------------------|

87
E|-------------------------------------|--------------------------------7----|
B|-------------------------------------|--------------1-h4--4-/8--------6----|
G|--------------5----------------------|--------0-h5--------------------7----|
D|--------------6----------------------|--------------------------------5----|
(1)/5-----0--------0--1--3--5--1--0----|--0-----------------------0----------|
D|--------------3--------------------3-|--------------------------5----------|

89
E|--8-----8-----8----------------------|--------------------6-----6----------|
B|--------------------8-----8----------|--4-----4-----4-----4-p3--4----------|
G|--8-----8-p7--8-----------------0----|--3----------------------------------|
D|--5----------------10-p9-10-----5----|--5-----5-p4--5-----5-----5----------|
G|--5----------------------------------|--6-------------------------(3)/5----|
D|-------------------------------------|-------------------------------------|

91
E|-10-----------------3-----3-----7----|--7----10----10----10-10-10----10----|
B|--0-----0-----0-----3-----3-----8----|--8-----8-----8----------------------|
G|--0-----7-----7-----4-p3--4-----7-p6-|--7----------------------11----11----|
D|--------5-p4--5----------------------|--------9-p8--9----------10----10----|
G|-------------------------------------|-------------------------------------|
D|--0----------------------------------|--------------------------0----------|

93                   D.C. al % hasta @  94  @
E|-15-----7-----7-----7-----8-----8----| |-15----------------------------------|
B|--0-----8-p7--------------------7----| |-12----------------------------------|
G|--0----------10-----9-p8--7--------7-| |--0----------------------------------|
D|--0-----------------------7----------| |-------------------------------------|
G|--0-----------------7-----------7----| |-------------------------------------|
D|-------------------------------------| |-------------------------------------|

95
E|-------------------------------------|--3----------------------------------|
B|-------------------------^5----------|--0----------------------------------|
G|-------------------------^5----------|--4----------------------------------|
D|-------------------------^5----------|--0----------------------------------|
G|-------------------------^5----------|--0----------------------------------|
D|-------------------------------------|--5----------------------------------|




===========================================================================
|                                                                         |
| Jeff Lo                       D|-0-------0-0-0-0-0-0-------0-0-0-0-0-0- |
| Crystal Steel Fabricators     C|--7------7-7-7-7-7--6------6-6-6-6-6-6- |
| Route 2 Box 13                G|---0-----0-0-0-0-0---0-----0-0-0-0-0-0- |
| North Second Street Extended  C|----7----7-7-7-7-7----6----6-6-6-6-6-6- |
| Delmar, DE 19940              G|-----0---0-0-0-0-0-----0---0-0-0-0-0-0- |
| (302) 846-0613                D|--------------------------------------- |
| loj@iia.org                                              -Jimmy Page    |
|                                                                         |
===========================================================================









































variations - click chord images
Transpose chords:
Tuning:
Cool service:
View: Size:
A  A  A
Rating:
Layout:
  • Currently 0/5 Stars.
  • 1
  • 2
  • 3
  • 4
  • 5
 
Accuracy:
  • Currently 2.7/5 Stars.
  • 1
  • 2
  • 3
  • 4
  • 5
 
click stars to rate
Chordie recommends:
Learn to play guitar with video-based, online guitar lessons at JamPlay.com
Songbook:
Login to add this song to your songbook
Support the artist
Preview/buy this song
MSN Music
Why this non-profit ad?

 
login to add comments/video/corrections